Song name
# A B C D E F G H I J K L M N O P Q R S T U V W X Y Z

Swans - Youre Not Real Girl tab

-------------------------------------------------------------------------------
			     YOU'RE NOT REAL, GIRL - Swans
-------------------------------------------------------------------------------
Tabbed by: openless

Tuning: standard

The entire song is this with the other two parts thrown in after the Em on occasion.

e|---------------|
B|---------------|
G|---------------|
D|-222222-2------|
A|-333333-2------|
E|--------0------|

I believe this is actually bass but it makes it more interesting on a solo acoustic to 
these too.

e|---------|
B|---0---0-|
G|---------|
D|---------|
A|-2---2---|
E|---------|

e|---------|
B|---0-1-0-|
G|---------|
D|---------|
A|-2-------|
E|---------|


| /  slide up
| \  slide down
| h  hammer-on
| p  pull-off
| ~  vibrato
| +  harmonic
| x  Mute note
===============================================================================
Tap to rate this tab
 
# A B C D E F G H I J K L M N O P Q R S T U V W X Y Z