Song name
# A B C D E F G H I J K L M N O P Q R S T U V W X Y Z

Swans - Blackmail tab

-------------------------------------------------------------------------------
			     BLACKMAIL - Swans
-------------------------------------------------------------------------------
Tabbed by: openless

Tuning: Standard

This is a guitar adaptation of an all-piano song. Sounds great on acoustic.

Repeat this endlessly.

e|---------------------------------------------------------------------------|
B|---------------------------------------------------------------------------|
G|-----------------------2-0-------------------------------------------------|
D|-0-2-----0---------3-------3-2-0-------------------------------------------|
A|-----3-3-----0-0-3-3-------------------------------------------------------|
E|-------------------1-------------------------------------------------------|



| /  slide up
| \  slide down
| h  hammer-on
| p  pull-off
| ~  vibrato
| +  harmonic
| x  Mute note
===============================================================================
Tap to rate this tab
# A B C D E F G H I J K L M N O P Q R S T U V W X Y Z