Song name
# A B C D E F G H I J K L M N O P Q R S T U V W X Y Z

Swashbuckle - Nautical Nonsense tab

-------------------------------------------------------------------------------
			     NAUTICAL NONSENSE - Swashbuckle
-------------------------------------------------------------------------------
Tabbed by: ironmanben
Email: bentrooper@gmail.com

It's basically a Death/Pirate metal version of the Spongebob theme.

Tuning: e B G D A D

verse x4
e|--------------------------|
B|--------------------------|
G|--------------------------|
D|-00-000-000-000-08-8-8-8--|
A|-00-000-000-000-08-8-8-8--|
D|-00-000-000-000-08-8-8-8\-|

chorus x3
either this:
e|------------------|
B|------------------|
G|------------------|
D|------------------|
A|-----------7--7---|
D|-4p2p04p2p07p07p0-|
or this:
e|------------------|
B|------------------|
G|------------------|
D|------------------|
A|-----------7--7---|
D|-3p2p03p2p07p07p0-|
...whichever sounds right to you.


bridge:
e|----------------|
B|----------------|
G|----------------|
D|-7-9--11-12--12-|
A|-7-9--11-12--12-|
D|-7-9--11-12--12-|

outro:
e|------------------|
B|-----7---7--------|
G|-7-9---9---7------|
D|--------------0-0-|
A|--------------0-0-|
D|--------------0-0-|


| /  slide up
| \  slide down
| h  hammer-on
| p  pull-off
| ~  vibrato
| +  harmonic
| x  Mute note
===============================================================================
Tap to rate this tab
# A B C D E F G H I J K L M N O P Q R S T U V W X Y Z