Song name
# A B C D E F G H I J K L M N O P Q R S T U V W X Y Z

Swashbuckle - Cruise Ship Terror tab

                   ~Swashbuckle-Cruise Ship Terror~

  . = palm mute
  h = hammer on
  p = pull off
  / = slide

 sorry guys no solo :(

                         Intro
|-----------------------------------------------------------|
|-----------------------------------------------------------|
|-----------------------------------------------------------|
|--1--0----0--6--7----0----4--------------------------------|
|--1--0----0--6--7----0----4--------------------------------|
|--1--0----0--6--7----0----4--4-4-4-4-4-4-4-4-4-4-4-4-4-4-4-|
                           .  . . . . . . . . . . . . . . .


|-----------------------------------------------------------|
|-----------------------------------------------------------|
|-----------------------------------------------------------|
|--1--0----0--6--7----0----4--------------------------------|
|--1--0----0--6--7----0----4--------------------------------|
|--1--0----0--6--7----0----4--4-4-4-4-4-4-4-4-4-4-4-4-4-4-4-|
                           .  . . . . . . . . . . . . . . .


|-----------------------------------------------------------|
|-----------------------------------------------------------|
|-----------------------------------------------------------|
|--1--0----0--6--7----0----4--------------------------------|
|--1--0----0--6--7----0----4--------------------------------|
|--1--0----0--6--7----0----4--4-4-4-4-4-4-4-4-4-4-4-4-4-4-4-|
                           .  . . . . . . . . . . . . . . .


|-----------------------------|
|-----------------------------|
|-----------------------------|
|--1--0----0--6--7----0----4--|
|--1--0----0--6--7----0----4--|
|--1--0----0--6--7----0----4--|

|-----------------------------------------------------------|
|-----------------------------------------------------------|
|-----------------------------------------------------------|
|--1--0----0--6--7----0----4--------------------------------|
|--1--0----0--6--7----0----4--------------------------------|
|--1--0----0--6--7----0----4--4-4-4-4-4-4-4-4-4-4-4-4-4-4-4-|
                           .  . . . . . . . . . . . . . . .

|--------------------------------------------------------|
|--------------------------------------------------------|
|--------------------------------------------------------|
|--1--0----0--6--7----0----4--------------3----4----3----|
|--1--0----0--6--7----0----4--------------5----2----1----|
|--1--0----0--6--7----0----4--4-4-4-4-4-4----------------|
                           .  . . . . . .


|-----------------------------------------------------------|
|-----------------------------------------------------------|
|-----------------------------------------------------------|
|--1--0----0--6--7----0----4--------------------------------|
|--1--0----0--6--7----0----4--------------------------------|
|--1--0----0--6--7----0----4--4-4-4-4-4-4-4-4-4-4-4-4-4-4-4-|
                           .  . . . . . . . . . . . . . . .

|--------------------------------------------------------|
|--------------------------------------------------------|
|--------------------------------------------------------|
|--1--0----0--6--7----0----4--------------3----4----3----|
|--1--0----0--6--7----0----4--------------5----2----1----|
|--1--0----0--6--7----0----4--4-4-4-4-4-4----------------|
                           .  . . . . . .


|-----------------------------------------------------------|
|-----------------------------------------------------------|
|-----------------------------------------------------------|
|--1--0----0--6--7----0----4--------------------------------|
|--1--0----0--6--7----0----4--------------------------------|
|--1--0----0--6--7----0----4--4-4-4-4-4-4-4-4-4-4-4-4-4-4-4-|
                           .  . . . . . . . . . . . . . . .

|--------------------------------------------------------|
|--------------------------------------------------------|
|--------------------------------------------------------|
|--1--0----0--6--7----0----4--------------3----4----3----|
|--1--0----0--6--7----0----4--------------5----2----1----|
|--1--0----0--6--7----0----4--4-4-4-4-4-4----------------|
                           .  . . . . . .

          Bridge
|------------------------------|
|------------------------------|
|-7-----------------6----------|
|-7--------6--------6----------|
|-5--------6--------4----------|
|-0--------6-------------------|


|---------------------------------------------|
|---------------------------------------------|
|-7-----------------6-------------------------|
|-7--------6--------6---------10----9----8----|
|-5--------6--------4----------8----7----6----|
|-0--------6----------------------------------|


|------------------------------|
|------------------------------|
|-7-----------------6----------|
|-7--------6--------6----------|
|-5--------6--------4----------|
|-0--------6-------------------|


|---------------------------------|
|---------------------------------|
|---------------------------------|
|-10----9----8----10----9----8----|
|--8----7----6----10----9----8----|
|-----------------10----9----8----|

                     Chorus
|-------------------------------------------------------------------|
|-------------------------------------------------------------------|
|-------------------------------------------------------------------|
|-0-------1-----4-----0--------4-----0-----4-----8h-9---------------|
|-0-------1-----4-----0--------4-----0-----4-----8h-9---------------|
|-0--0-0--1--0--4--0--0--0--0--4--0--0--0--4--0--8h-9--9-9-9-9-9-9--|
     . .     .     .     .  .     .     .     .        . . . . . .
|-----------------------|
|-----------------------|
|-----------------------|
|-8h-9-------9--8--6----|
|-8h-9-------9--8--6----|
|-8h-9--9-9--9--8--6----|
        . .


|------------------------------------------------------------------|
|------------------------------------------------------------------|
|------------------------------------------------------------------|
|-0-------1-----4-----0--------4-----0-----4-----8h-9--------------|
|-0-------1-----4-----0--------4-----0-----4-----8h-9--------------|
|-0--0-0--1--0--4--0--0--0--0--4--0--0--0--4--0--8h-9--9-9-9-9-9-9-|
     . .     .     .     .  .     .     .     .        . . . . . .
|----------------------|
|----------------------|
|----------------------|
|-8h-9-----------12/---|
|-8h-9-----------12/---|
|-8h-9--9-9-9-9--12/---|
        . .


|------------------------------------------------------------------|
|------------------------------------------------------------------|
|------------------------------------------------------------------|
|-0-------1-----4-----0--------4-----0-----4-----8h-9--------------|
|-0-------1-----4-----0--------4-----0-----4-----8h-9--------------|
|-0--0-0--1--0--4--0--0--0--0--4--0--0--0--4--0--8h-9--9-9-9-9-9-9-|
     . .     .     .     .  .     .     .     .        . . . . . .
|-----------------------|
|-----------------------|
|-----------------------|
|-8h-9-------9--8--6----|
|-8h-9-------9--8--6----|
|-8h-9--9-9--9--8--6----|
        . .


|------------------------------------------------------------------|
|------------------------------------------------------------------|
|------------------------------------------------------------------|
|-0-------1-----4-----0--------4-----0-----4-----8h-9--------------|
|-0-------1-----4-----0--------4-----0-----4-----8h-9--------------|
|-0--0-0--1--0--4--0--0--0--0--4--0--0--0--4--0--8h-9--9-9-9-9-9-9-|
     . .     .     .     .  .     .     .     .        . . . . . .
|-----------------------------------------------------------|
|-----------------------------------------------------------|
|----------------------------7------------------------------|
|-8h-9-------8----9----10----7----------0----0----0----0----|
|-8h-9-------8----9----10----5----------0----0----0----0----|
|-8h-9--9-9--8----9----10----0----------0----0----0----0----|


                        Interlude
|----------------------------------------------|
|----------------------------------------------|
|----------------------------------------------|
|--11-------4-----3-------8-----7---------8p-7-|
|--11-------4-----3-------8-----7---------8p-7-|
|--11--0-0--4--0--3--0-0--8--0--7--0-0-0--8p-7-|
       . .     .     . .     .     . . .


|----------------------------------------------|
|----------------------------------------------|
|----------------------------------------------|
|--11-------4-----3-------8-----7---------8p-7-|
|--11-------4-----3-------8-----7---------8p-7-|
|--11--0-0--4--0--3--0-0--8--0--7--0-0-0--8p-7-|
       . .     .     . .     .     . . .


|----------------------------------------------|
|----------------------------------------------|
|----------------------------------------------|
|--11-------4-----3-------8-----7---------8p-7-|
|--11-------4-----3-------8-----7---------8p-7-|
|--11--0-0--4--0--3--0-0--8--0--7--0-0-0--8p-7-|
       . .     .     . .     .     . . .

|----------------------------------------------|
|----------------------------------------------|
|----------------------------------------------|
|--11-------4-----3-------8-----7---------8p-7-|
|--11-------4-----3-------8-----7---------8p-7-|
|--11--0-0--4--0--3--0-0--8--0--7--0-0-0--8p-7-|
       . .     .     . .     .     . . .

                  Outro
|------------------------------------------------------------------------|
|------------------------------------------------------------------------|
|------------------------------------------------------------------------|
|----4----------------4--------2--------0----------------0-----7h-9---7--|
|----4----------------4--------2--------0----------------0-----7h-9---7--|
|-4--4-----------4-4--4-----2--2-----0--0-----------0-0--0-----7h-9---7--|
  .              . .        .        .              . .


|---------------------------------------------------------------------|
|---------------------------------------------------------------------|
|---------------------------------------------------------------------|
|----4----------------4--------2--------0-----------7--6--7--9--7--6--|
|----4----------------4--------2--------0-----------5--4--5--7--5--4--|
|-4--4-----------4-4--4-----2--2-----0--0-----------------------------|
  .              . .        .        .


|------------------------------------------------------------------------|
|------------------------------------------------------------------------|
|------------------------------------------------------------------------|
|----4----------------4--------2--------0----------------0-----7h-9---7--|
|----4----------------4--------2--------0----------------0-----7h-9---7--|
|-4--4-----------4-4--4-----2--2-----0--0-----------0-0--0-----7h-9---7--|
  .              . .        .        .              . .


|---------------------------------------------------------------------|
|---------------------------------------------------------------------|
|---------------------------------------------------------------------|
|----4----------------4--------2--------0-----------7--6--7--9--7--6--|
|----4----------------4--------2--------0-----------5--4--5--7--5--4--|
|-4--4-----------4-4--4-----2--2-----0--0-----------------------------|
  .              . .        .        .


                      Ending
|--------------------------------------------------------------------------|
|--------------------------------------------------------------------------|
|--------------------------------------------------------------------------|
|--7--6--7--9--7--6--7--6--7--9--7--6--7-----6----7----9----7----6----4----|
|--5--4--5--7--5--4--5--4--5--7--5--4--7-----6----7----9----7----6----4----|
|--------------------------------------7-----6----7----9----7----6----4----|

|------|
|------|
|------|
|--4/--|
|--4/--|
|--4/--|
Tap to rate this tab
# A B C D E F G H I J K L M N O P Q R S T U V W X Y Z