Song name
# A B C D E F G H I J K L M N O P Q R S T U V W X Y Z

Swear By This - Brand New tab

Tab by Gino Bretana  pinoygballer@yahoo.com

My First Tab

| /  slide up
| \  slide down
| h  hammer-on
| p  pull-off
| ~  vibrato
| *  harmonic
| x  Mute note
| b  bend


Intro Guitar 1
|-----------3-0-|
|----22---2-----|
|-2-2--2-2------|
|---------------|
|---------------|
|---------------|x4

Intro Guitar 2
|---------------3-0---------------3-0----------------3-0---------------3-0|
|---2-22-2-2-22-------2-22-2-2-22--------2-22-2-2-22-------2-22-2-2-22----|
|-------------------------------------------------------------------------|
|--------------------------------------0-----------------0----------------|
|-0-----------------0-----------------------------------------------------|
|-------------------------------------------------------------------------|
x4

Verse Guitar 1
|-------0----0----------0----0----5----5-----4----5----5-----4------------|
|-------0----2----------0----2----0----0-----0----0----0-----0------------|
|-2-2-2-2-22-2----2-2-2-2-22-2----2-22-2--22-2----2-22-2--22-2------------|
|-------------------------------------------------------------------------|
|-------------------------------------------------------------------------|
|-------------------------------------------------------------------------|
x2

Verse Guitar 2
|-------------------------------------------------------------------------|
|-------------------------------------------------------------------------|
|-------------------------------------------------------------------------|
|-------------------------------------------------------------------------|
|-555-5----4--555-5----4---9-9-9--9--------9---9-9-9-------9--------------|
|-555-5-55-5--555-5-55-5--101010-10--1010-10--101010-1010-10--------------|
x2

Chorus Guitar 1

|-----------3-0-|
|----22---2-----|
|-2-2--2-2------|
|---------------|
|---------------|
|---------------|x8

Chorus Guitar 2

|-------------------------------------------------------------------------|
|-------------------------------------------------------------------------|
|-------------------------------------------------------------------------|
|-------------------------------------------------------------------------|
|-4-44-4-4-44--4-44-4-4-44\-8\-9---9-9--9--9--9-9--9---9--9-9--9--9-------|
|-5-55-5-5-55--5-55-5-5-55\-9\-10-1010-10-10-1010-10--10-1010-10-10-------|
x2

Then the Verse Again, then the Chorus

Bridge Guitar 1

|-00-000-0-000-00-000-0--55-555-5-4-444-55-555-5-4-444---------------------|
|-00-000-0-000-00-000-0--00-000-0-0-000-00-000-0-0-000---------------------|
|-22-222-1-111-22-222-1--22-222-2-2-222-22-222-2-2-222---------------------|
|--------------------------------------------------------------------------|
|--------------------------------------------------------------------------|
|--------------------------------------------------------------------------|
x2

Bridge Guitar 2

|-------------------------------------------------------------------------|
|-------------------------------------------------------------------------|
|-------------------------------------------------------------------------|
|-------------------------------------------------------------------------|
|-4-44-4-4-44--4-44-4-4-44\-8\-9---9-9--9--9--9-9--9---9--9-9--9--9-------|
|-5-55-5-5-55--5-55-5-5-55\-9\-10-1010-10-10-1010-10--10-1010-10-10-------|
x2

i tried my best on the solo

Solo Guitar 1

|-9-7---------------------------------------------------7-10---13b14-13b14-|
|-----10-9-10-9-----------------------------------10-10--------------------|
|---------------9-7-6--7-6--6h7p6----------6-7-9---------------------------|
|---------------------------------7-9-7--7---------------------------------|
|--------------------------------------------------------------------------|
|--------------------------------------------------------------------------|

|-12p9--------------------------------------8b9-8b9-8b9-5------------------|
|------12p9--10h12p10-9-10-9-10-9-let ring----------------5h7p5-5-3--------|
|--------------------------------------------------------------------------|
|--------------------------------------------------------------------------|
|--------------------------------------------------------------------------|
|--------------------------------------------------------------------------|

|-5-7-5-7--8b9-8b9-8b9-8b9--5-let ring-------4-6b7--5----------------------|
|--------------------------------------------------------------------------|
|--------------------------------------------------------------------------|
|--------------------------------------------------------------------------|
|--------------------------------------------------------------------------|
|--------------------------------------------------------------------------|

Solo Guitar 2 

|-------------------------------------------------------------------------|
|-------------------------------------------------------------------------|
|-------------------------------------------------------------------------|
|-------------------------------------------------------------------------|
|-4-44-4-4-44--4-44-4-4-44\-8\-9---9-9--9--9--9-9--9---9--9-9--9--9-------|
|-5-55-5-5-55--5-55-5-5-55\-9\-10-1010-10-10-1010-10--10-1010-10-10-------|
x2

|-------0----0----------0----0----5----5-----4----5----5-----4------------|
|-------0----2----------0----2----0----0-----0----0----0-----0------------|
|-2-2-2-2-22-2----2-2-2-2-22-2----2-22-2--22-2----2-22-2--22-2------------|
|-------------------------------------------------------------------------|
|-------------------------------------------------------------------------|
|-------------------------------------------------------------------------|

then repeat the verse, the chorus, and the bridge once more

Outro Guitar 1
|-----------3-0-|
|----22---2-----|
|-2-2--2-2------|
|---------------|
|---------------|
|---------------|x4

|--0------------|
|--2--let ring--|
|--2------------|
|---------------|
|---------------|
|---------------|

Outro Guitar 2
|---------------3-0---------------3-0----------------3-0---------------3-0|
|---2-22-2-2-22-------2-22-2-2-22--------2-22-2-2-22-------2-22-2-2-22----|
|-------------------------------------------------------------------------|
|--------------------------------------0-----------------0----------------|
|-0-----------------0-----------------------------------------------------|
|-------------------------------------------------------------------------|

|---------------|
|---------------|
|---------------|
|---------------|
|--4--let ring--|
|--5------------|

thank you

http://www.swearbythis.com/
Tap to rate this tab
# A B C D E F G H I J K L M N O P Q R S T U V W X Y Z