Song name
# A B C D E F G H I J K L M N O P Q R S T U V W X Y Z

Sweatshop Union - Humans Race tab

REGULAR TUNING

BASS
G-------------------------|
D-------------------------|
A--1----1-----------------|
E----------2--2-1---------|

RHYTHM (Capo 1)
e-------------------0---------------------------|
B---5-3-5--3-5--------3-1p0---------------------|
G---5-4-5--4-5----2--------2--------------------|
D---------------3-----------3-------------------|
A-0---------------------------------------------|
E-------3-------1-------------------------------|

e-------------------0--------0------------------|
B---5-3-5--3-5--------3----1--------------------|
G---5-4-5--4-5----2-----------------------------|
D---------------3-------------------------------|
A---0-------------------------------------------|
E-------3-------1-------------------------------|


LEAD(No capo)

|---(tremolo picking)----------------------------|

e-16-14-13-14-13-11-13-11-9-11-9-8-9-8-6-11-9-6-8----|
B-------------------------------------------------14-|
G----------------------------------------------------|
D----------------------------------------------------|
A----------------------------------------------------|
E----------------------------------------------------|

e-------------/16-14-13----------------------------------/  repeat
B-11-------11-----------11------13-14-----------  throu--/
G----13--------------------13----------------------------/  ghout
D--------------------------------------------------------/  /whole
A--------------------------------------------------------/ / song.
E--------------------------------------------------------/


FILL A
e-----------------------------------------------------|
B---------8-9-8-----------used------------------------|
G----8-10-------10-8-7-----in-------------------------|
D-10----------------------verse-----------------------|
A-----------------------------------------------------|
E-----------------------------------------------------|

FILL B
e-----------------------------------------------------|
B---------------------played before-------------------|
G----/10-10----10-----"freedom I can't find"----------|
D-----------11----------------------part--------------|
A-----------------------------------------------------|
E-----------------------------------------------------|

"solo"(played during the freedom I cant find part)
e----------------------|
B-16h18-15-15h16p15-13-|
G----------------------|
D----------------------|
A----------------------|
E----------------------|


e--14-14/16-14---11-13-14-16-14-13------11------------------|
B------------------------------------14-----13-14-13-11-----|
G-----------------------------------------------------------|
D-----------------------------------------------------------|
A-----------------------------------------------------------|
E-----------------------------------------------------------|


SECOND PART (AFTER FREEDOM I CAN'T FIND AND CHORUS)


BASS 2
G-----------------------------------------------------------|
D-----------------------------------------------------------|
A--4----4---4-----------------------------------------------|
E---------------------1---2---------------------------------|

RHYTHM 2 (CAPO 1)
e-------------------------------------------------------------------------|
B-5--5-5-5---1--1-1-1--0h1-----5---5---5---1---1-1-1-0h1------------------|
G-5--5-5-5---2-----------------5---5---5---2------------------------------|
D--------------------------3-----------------------------3----------------|
A------------------------------------0------------------------------------|
E-------------------------------------------------------------------------|


LEAD 2 (with delay)
e------16--18---------------16-18-18------------------------|
B--18----------16-------18----------------------------------|
G-----------------------------------------------------------|
D-----------------------------------------------------------|
A-----------------------------------------------------------|
E-----------------------------------------------------------|

Use FILL A for second part as well.


Any comments or suggestions or requests, contact me at: it_wasnt_me_3@hotmail.com
Tap to rate this tab
 
# A B C D E F G H I J K L M N O P Q R S T U V W X Y Z