Song name
# A B C D E F G H I J K L M N O P Q R S T U V W X Y Z

Swedish House Mafia - One tab

Standard tuning (E-A-D-G-B-e)

This should be right for the most part, the only thing that would not be is the 
"Background Synth" part. That probably is not the exact translation but if you play something 
along that scale or line it should sound good.

Beginning: Starting at 0:48
________________________________________________________________________
e -------------------------------------------------------|
B -10-8-----------------------10-8-----------------------|
G ------10-9-7-7-7-7-7----7-7------10-9-7-7-7-7-7----7-7-|
D -------------------------------------------------------|
A -------------------------------------------------------|
E -------------------------------------------------------|  x4

Variation at 1:03
______________________________________________________________________________________
e ------------------------------------------------------------------|
B -----10-8------------------------------10-8------8-8-8-8-8----8-8-|
G -7-7------10-9-10-10-10-10-10----10-10------10-9------------------|
D ------------------------------------------------------------------|
A ------------------------------------------------------------------|
E ------------------------------------------------------------------|  x6


Fuller Sound at 1:49
_____________________________________________________________________________________
e ------------------------------------------------------------------|
B --9-7-5-4-5-5-5-5-5----5-5-9-7-5-4-7-7-7-7-7----7-7---------------|
G --7-5-3-2-3-3-3-3-3----3-3-7-5-3-2-5-5-5-5-5----5-5---------------|
D ------------------------------------------------------------------|
A ------------------------------------------------------------------|
E ------------------------------------------------------------------|  x2


Background Synth at 2:05
_____________________________________________
e ----------------------------------|
B -10-8-----------------------------|
G ------10-9-10-9-7-----------------|
D ------------------10-7----7-------|
A -----------------------10---------|
E ----------------------------------|   x4

Break at 2:20
_____________________________________________
e ----------------------------------|
B -10-10-10-10-10-10-10-10-10-------|
G -10-10-10-10-10-10-10-10-10-------|
D ----------------------------------|
A ----------------------------------|
E ----------------------------------|   (Repeats until 2:43, about 6 or 8 measures)


Full sound and Lead at 2:43, play either part
______________________________________________________________________________________
 e --------------------------------------------------------------------|
B --9-7-5-4-5-5-5-5-5----5-5-9-7-5-4-7-7-7-7-7----7-7------------------|
G --7-5-3-2-3-3-3-3-3----3-3-7-5-3-2-5-5-5-5-5----5-5------------------|
D ---------------------------------------------------------------------|
A ---------------------------------------------------------------------|
E ---------------------------------------------------------------------|  x6

______________________________________________________________________________________
e ------------------------------------------------------------------|
B -----10-8------------------------------10-8------8-8-8-8-8----8-8-|
G -7-7------10-9-10-10-10-10-10----10-10------10-9------------------|
D ------------------------------------------------------------------|
A ------------------------------------------------------------------|
E ------------------------------------------------------------------|  x6


Background Synth at 3:29
_____________________________________________
e ----------------------------------|
B -10-8-----------------------------|
G ------10-9-10-9-7-----------------|
D ------------------10-7----7-------|
A -----------------------10---------|
E ----------------------------------|   x2


Variation at 3:44
______________________________________________________________________________________
e ------------------------------------------------------------------|
B -----10-8------------------------------10-8------8-8-8-8-8----8-8-|
G -7-7------10-9-10-10-10-10-10----10-10------10-9------------------|
D ------------------------------------------------------------------|
A ------------------------------------------------------------------|
E ------------------------------------------------------------------|  x4


Synth at 4:15
_____________________________________________
e ----------------------------------|
B -10-8-----------------------------|
G ------10-9-10-9-7-----------------|
D ------------------10-7----7-------|
A -----------------------10---------|
E ----------------------------------|   x8

End Variation (Same as Intro) at 4:46
_____________________________________________________________________________
e -----------------------------------------------------------|
B -----10-8-----------------------10-8-----------------------|
G -7-7------10-9-7-7-7-7-7----7-7------10-9-7-7-7-7-7----7-7-|
D -----------------------------------------------------------|
A -----------------------------------------------------------|
E -----------------------------------------------------------|  x11
Tap to rate this tab
 
# A B C D E F G H I J K L M N O P Q R S T U V W X Y Z