Song name
# A B C D E F G H I J K L M N O P Q R S T U V W X Y Z

Swedish House Mafia - Save The World Tonight tab

Tabbed by PHILIP VASQUEZ

Enjoy!


Cadd9 : [0 3 2 0 3 3]
C2    : [0 3 2 0 3 0]
Fmaj7 : [1 x 2 2 1 x]


ALTERNATIVELY FOR THOSE WHO DONT WANT COMPLICATED CHORDS:
Instead of Cadd9/C2 just play a C chord and instead of a Fmaj7 just play an F chord.


--//Verse 1//--

Am
Into the streets

C
we're coming down

Am
We never sleep

C
Never get tired

Am
Through urban fields

C           Fmaj7
and suburban life.




--//Pre-Chorus//--

Am
Turn the crowd up now

C
We'll never back down

Am
Shoot down a skyline

C
watch it in primetime

Am
Turn up the love now

C                          Fmaj7
listen up now, turn up the love




--//Chorus//--

            Am       Cadd9    Fmaj7
Who's gonna save the world tonight?

            Am        Cadd9    Fmaj7
Who's gonna bring you back to life?

            Am       C        Fmaj7
We're gonna make it, you and I

            Am       C2        Fmaj7
We're gonna Save The World tonight


Ohoh oh oh, oh oh ohoh oh [x9]

--//Verse 2//--

(In this verse there is some of this in the background)

 Am                          C
|--------------------------|--------------------------|
|---1-----1-----1-----1----|---1-----1-----1-----1----|
|------2-----2-----2-----2-|------0-----0-----0-----0-|
|--------------------------|--------------------------|
|--------------------------|--------------------------|
|--------------------------|--------------------------|

F                            F
|--------------------------|-1-----1-----1-----1------|
|---1-----1-----1-----1----|---1-----1-----1-----1----|
|------2-----2-----2-----2-|------2-----2-----2-----2-|
|--------------------------|--------------------------|
|--------------------------|--------------------------|
|--------------------------|--------------------------|



Am
We're far from home

C
it's for the better

F
What we dream

F
it's all that matters

Am               C         F
We're on our way, united




--//Pre-Chorus//--
Am
Turn the crowd up now

C
We'll never back down

Am
Shoot down a skyline

C
watch it in primetime

Am
Turn up the love now

C                          Fmaj7
listen up now, turn up the love



--//Chorus//--

            Am       Cadd9    Fmaj7
Who's gonna save the world tonight?

            Am        Cadd9    Fmaj7
Who's gonna bring you back to life?

            Am       C        Fmaj7
We're gonna make it, you and I

            Am       C2        Fmaj7
We're gonna Save The World tonight


Ohoh oh oh, oh oh ohoh oh [Repeat till end]


The 'Ohoh oh oh' melody goes like this:

|------3--0--------3---0---|--------3--0--------3-5s-0|
|-1--3h-------1--3h--------|---1--3h-------1--3h------|
|--------------------------|--------------------------|
|--------------------------|--------------------------|
|--------------------------|--------------------------|
|--------------------------|--------------------------|


Tabbed by PHILIP VASQUEZ

Tap to rate this tab
 
# A B C D E F G H I J K L M N O P Q R S T U V W X Y Z