Song name
# A B C D E F G H I J K L M N O P Q R S T U V W X Y Z

Swedish House Mafia - Save The World tab

save the world by the swedish house mafia
i like this song, its really catchy.(tab part p =pull-off)
chords= C x32010
am x02210
F 133211
csus2 x35533

(use this finger-picking section for the first paragraph in verse 1 and 2)

e|---------------------------------------------------------------------------|
B|--------------1--------1-------1----------1-----------1-----------------1--|
G|---------2-----------------2----------0-----------0-------2-p-0-------2----|
D|---------------------------------------------------------------------------|
A|---0--------------0---------------3-----------3----------------------------|
E|-----------------------------------------------------------------1---------|

e|---------------------------------------------------------------------------|
B|------1------1-----------1----------1--------------------------------------|
G|---------2-----------2------------2-------2-p-0----------------------------|
D|---------------------------------------------------------------------------|
A|---------------------------------------------------------------------------|
E|--1--------------1------------1--------------------------------------------|

e|---------------------------------------------------------------------------|
B|--------------1--------1-------1----------1-----------1-----------------1--|
G|---------2-----------------2----------0-----------0-------2-p-0-------2----|
D|---------------------------------------------------------------------------|
A|---0--------------0---------------3-----------3----------------------------|
E|-----------------------------------------------------------------1---------|

e|----------------------------1----------------------------------------------|
B|--------1-------1-----------1----------------------------------------------|
G|------------2------2--------2----------------------------------------------|
D|----------------------------3----------------------------------------------|
A|----------------------------3----------------------------------------------|
E|----1-----------------------1----------------------------------------------|

[Verse 1]
Into the streets
We're coming down
We never sleep
Never get tired
So urban feels
And suburban lights

F        am
Turn the crowd up now
              C
We'll never back down
                F
Shoot at the skylight
And watching it on primetime
             am
Turn up the love now
        C                    F
Listen up now, turn up the love

[Chorus]
             am        C     F 
Who's gonna save the world tonight?
             am        Csus2     F 
Who's gonna bring me back to life?
            am        C     F 
We're gonna make it, you and I
              am        C     F
We're gonna save the world tonight

e|----------------0-----------------------------------------------------|
B|---1----0---1---1---3---1------------3-----------3--------------------|
G|---2----2---2-------0---0----2---0---0---2---0---0--------------------|
D|---------------------------------2-----------2------------------------| x2
A|---0----0---0---3---3---3----3-----------3----------------------------|
E|----------------------------------------------------------------------|

am
OHOHOHhhOHO
C
OHOHOHOHOOHOH
F
OHOHOHOHOOHOH

[Verse 2]

We're far from home, it's for the better
What we dream, it's all that matters
We're on our way, united

F        am
Turn the crowd up now
              C
We'll never back down
               F
Shoot at the skylight
And watching it on primetime
             am
Turn up the love now
        C                    F
Listen up now, turn up the love

[Chorus]
               am        C     F
Who's gonna save the world tonight?
              am        Csus2     F  
Who's gonna bring me back to life?
              am        C     F
We're gonna make it, you and I
              am        C     F  
We're gonna save the world tonight

am
OHOHOHhhOHO
C
OHOHOHOHOOHOH
F
OHOHOHOHOOHOH


the end.

the csus2 which only occurs twice can be played as a cmajor instead.
good luck, sean .          *btw for the tab part p =pull-off* 
chords= C x32010
am x02210
F 133211
csus2 x35533
Tap to rate this tab
# A B C D E F G H I J K L M N O P Q R S T U V W X Y Z