Song name
# A B C D E F G H I J K L M N O P Q R S T U V W X Y Z

Swedish House Mafia - One tab

the whole song kind of repeats itself over and over with some small differences but they 
are more inbetween parts instead of different notes.

e----------------------------------------------------|
b----------------------------------------------------|
g--14--12--10--9--10-10-10-10-10---------------------|
d--0---0----0--0--0--0--0--0--0----------------------|
a----------------------------------------------------|
E----------------------------------------------------|

e----------------------------------------------------|
b----------------------------------------------------|
g--10-10--14--12--10--9--12-12-12-12-12--------------|
d--0--0---0---0---0---0--0--0--0--0--0---------------|
a----------------------------------------------------|
E----------------------------------------------------|

e---------|
b---------|
g--12-12--|
d--0--0---|
a---------|
E---------| from here the first part begins again and it keeps on repeating itself 
throughout the song, but there's also a small different part you can play at certain parts of 
the song.

e------------------------------------------------------|
b----5-6-8-6-5--------------5-6-8-6-5------------------|
g--7-----------7-5---------7----------7-5--------------|
d------------------7---7-7----------------7------------|
a------------------------------------------------------|
E------------------------------------------------------|

enjoy!
Tap to rate this tab
# A B C D E F G H I J K L M N O P Q R S T U V W X Y Z