Song name
# A B C D E F G H I J K L M N O P Q R S T U V W X Y Z

Swedish House Mafia - Dont You Worry Child Acoustic tab

this is the tab of the electric guitar part during the chorus

normal tuning

Hugh


. . . Q. .  Q. .  Q. .  Q. . . . Q. .  Q. .  Q. .  Q. .  
E||--------------------------|--------------------------|
B||--14----------------14----|--------------------14----|
G||--------14----------------|--14----------16----------|
D||--------------14----------|--------14----------------|
A||--------------------------|--------------------------|
E||--------------------------|--------------------------|
 
 
.  Q. .  Q. .  Q. .  Q. . . . Q. .  Q. . . Q. .  Q. .  
--------------------------|---------------------------|
--15----------------15----|---------------------------|
--------11----------------|--11----------\14----------|
--------------12----------|--------12-----------12----|
--------------------------|---------------------------|
--------------------------|---------------------------|
 
 
.  Q. .  Q. .  Q. .  Q. . . . Q. .  Q. .  Q. .  Q. .  
--------------------------|--------------------------|
--12----------------12----|--------------12----------|
--------14----------------|--14----------------14----|
--------------12----------|--------12----------------|
--------------------------|--------------------------|
--------------------------|--------------------------|
 
 
.  Q. .  Q. .  Q. .  Q. . . . Q. .  Q. .  Q. .  Q. . . 
--------------------------|--------------------------||
--12----------------12----|--------------12----------||
--------14----------------|--14----------------14----||
--------------12----------|--------12----------------||
--------------------------|--------------------------||
--------------------------|--------------------------||
Tap to rate this tab
# A B C D E F G H I J K L M N O P Q R S T U V W X Y Z