Song name
# A B C D E F G H I J K L M N O P Q R S T U V W X Y Z

Swedish House Mafia - Dont You Worry Child tab

E|-----7-7-7----5-5-7-7-7----2-2-3-3-3---2-2-3-3-3---2-2-----|
B|-----7-7-7----7-7-7-7-7----2-2-3-3-3---2-2-3-3-3---2-2-----|
G|-----7-7-7----7-7-7-7-7----2-2-4-4-4---2-2-4-4-4---2-2-----|
D|-----------------------------------------------------------|
A|-----------------------------------------------------------|
E|-----------------------------------------------------------| x4

E|----------------5-5-5--------------------------------------|
B|-----5-5-5-5----5-5-5----2-2-3-3-3---2-2-3-3-3---2-2-------|
G|-----4-4-4-4----6-6-6----2-2-2-2-2---2-2-2-2-2---2-2-------|
D|-----6-6-6-6-------------4-4-4-4-4---4-4-4-4-4---4-4-------|
A|-----------------------------------------------------------|
E|-----------------------------------------------------------| x2

It's not 100% accurate, but I think it sounds pretty good.
Please email me if you think something's way off: albert.larsson@telia.com
Tap to rate this tab
# A B C D E F G H I J K L M N O P Q R S T U V W X Y Z