Song name
# A B C D E F G H I J K L M N O P Q R S T U V W X Y Z

Swedish House Mafia - Dont You Worry Child tab

Hey everyone! I was looking around and saw none of these sound quite right, because they
were using single notes when it seems like there are more in the intro. When you hear
the recording, it sounds like a piano almost, but put the right effects on the guitar 
and it sounds great. This is my first tab, don't judge. Enjoy!

Tuning:Standard

Like this...

e|---------------------------------------------------------------------------|
B|-7-7-7--5-5--7-7-7---------------------------------------------------------|
G|-4-4-4--2-2--4-4-4--6-6-6--7-7--6-6-6--7-7--6-6-6--------------------------|
D|--------------------4-4-4--5-5--4-4-4--5-5--4-4-4--------------------------|repeat
A|---------------------------------------------------------------------------|
E|---------------------------------------------------------------------------|

Or this...

e|---------------------------------------------------------------------------|
B|---------------------------------------------------------------------------|
G|-11-11-11--9-9-9--11-11-11-------------------------------------------------|repeat
D|-9--9--9---7-7-7--9--9--9--11-11-11--12-12-12--11-11-11--12-12-12--11-11-11|
A|---------------------------9--9--9---10-10-10--9--9--9---10-10-10--9--9--9-|
E|---------------------------------------------------------------------------|

The acoustic version is is fun to learn to and sounds nothing like SHM, but good nonetheless.
They're the same, but sound slightly different, so your choice.

-niladoro7

Comments, feedback, whatever...Thanks!
Tap to rate this tab
# A B C D E F G H I J K L M N O P Q R S T U V W X Y Z