Song name
# A B C D E F G H I J K L M N O P Q R S T U V W X Y Z

Swedish House Mafia - Dont You Worry Child tab

Verse

There was a time, I used to look into my father's eyes

E--------------------------------------------------------|
B--3-3-3---3-3---3-3-3-----------------------------------|
G--4-4-4---4-4---4-4-4--2-2--4-4-4---2-2---4-4-4--2-2----|
D--4-4-4---4-4---4-4-4--0-0--5-5-5---0-0---5-5-5--0-0----|
A--2-2-2---0-0---2-2-2--0-0--5-5-5---0-0---5-5-5--0-0----|
E-----------------------2-2--3-3-3---2-2---3-3-3--2-2----|

In a happy home, I was a king I had a gold throne

E--------------------------------------------------------|
B--3-3-3---3-3---3-3-3-----------------------------------|
G--4-4-4---4-4---4-4-4--2-2--4-4-4---2-2---4-4-4--2-2----|
D--4-4-4---4-4---4-4-4--0-0--5-5-5---0-0---5-5-5--0-0----|
A--2-2-2---0-0---2-2-2--0-0--5-5-5---0-0---5-5-5--0-0----|
E-----------------------2-2--3-3-3---2-2---3-3-3--2-2----|

Those days are gone, now the memories are on the wall

E--------------------------------------------------------|
B--2-2-2---2-2---3-3-3-----------------------------------|
G--2-2-2---2-2---4-4-4--2-2--4-4-4---2-2---4-4-4--2-2----|
D--2-2-2---2-2---4-4-4--0-0--5-5-5---0-0---5-5-5--0-0----|
A--0-0-0---0-0---2-2-2--0-0--5-5-5---0-0---5-5-5--0-0----|
E-----------------------2-2--3-3-3---2-2---3-3-3--2-2----|

I hear the sounds from the places where I was born

E--------------------------------------------------------|
B--2-2-2---2-2---3-3-3-----------------------------------|
G--2-2-2---2-2---4-4-4--2-2--4-4-4---2-2---4-4-4--2-2----|
D--2-2-2---2-2---4-4-4--0-0--5-5-5---0-0---5-5-5--0-0----|
A--0-0-0---0-0---2-2-2--0-0--5-5-5---0-0---5-5-5--0-0----|
E-----------------------2-2--3-3-3---2-2---3-3-3--2-2----|

Up on the hill across the blue lake, thats where I had my first heart break

E--------------------------------------------------------|
B--3-3-3---3-3---3-3-3-----------------------------------|
G--4-4-4---4-4---4-4-4--2-2--4-4-4---2-2---4-4-4--2-2----|
D--4-4-4---4-4---4-4-4--0-0--5-5-5---0-0---5-5-5--0-0----|
A--2-2-2---0-0---2-2-2--0-0--5-5-5---0-0---5-5-5--0-0----|
E-----------------------2-2--3-3-3---2-2---3-3-3--2-2----|

I still remember how it all changed, my father said

E--------------------------------------------------------|
B--3-3-3---3-3---3-3-3-----------------------------------|
G--4-4-4---4-4---4-4-4--2-2--4-4-4---2-2---4-4-4--2-2----|
D--4-4-4---4-4---4-4-4--0-0--5-5-5---0-0---5-5-5--0-0----|
A--2-2-2---0-0---2-2-2--0-0--5-5-5---0-0---5-5-5--0-0----|
E-----------------------2-2--3-3-3---2-2---3-3-3--2-2----|

Chorus

Don't you worry, don't you worry child. See heaven's got a plan for you

E--------------------------------------------------------|
B--------------------------------------------------------|
G--------------------------------------------------------|
D--2-2-2---0-2---4-4-4--4--------------------------------|
A--0-0-0---0-0---2-2-2--2-5--5-5-5---5-5---5-5-5--5-5----|
E-------------------------2--3-3-3---2-2---3-3-3--2-2----|
p.m...........................................................................

Don't you worry, don't you worry now. Yeah!

E--------------------------------------------------------|
B--------------------------------------------------------|
G--------------------------------------------------------|
D--2-2-2---0-2---4-4-4--4--------------------------------|
A--0-0-0---0-0---2-2-2--2-5--5-5-5---5-5---5-5-5--5-5----|
E-------------------------2--3-3-3---2-2---3-3-3--2-2----|
p.m............................................................................

Then play 4 times...

E-------------------------------------------------------|
B--2-2-2---0-2---3-3-3--3---------------------------3---|
G--2-2-2---0-2---4-4-4--4-2--4-4-4---4-2---4-4-4--4-4---|
D--2-2-2---0-2---4-4-4--4-0--5-5-5---5-0---5-5-5--5-4---|
A--0-0-0-----0---2-2-2--2-0--5-5-5---5-0---5-5-5--5-2---|
E-------------------------2--3-3-3---3-2---3-3-3--3-----|
Tap to rate this tab
 
# A B C D E F G H I J K L M N O P Q R S T U V W X Y Z