Song name
# A B C D E F G H I J K L M N O P Q R S T U V W X Y Z

Sweet Diss And The Comebacks - Dunder And Dwightning tab

Band: Sweet Diss and The Comebacks
Song: Dunder and Dwightning
Tabbed October 17, 2009
By Lynn (Airbourne775)


Intro:

E|-------------------------------------------------|
B|-------10---9/10/9---5/7-------------------------|
G|---------------------------7-7-7p6------6--------|
D|---7---------------------------------9------7----|
A|-------------------------------------------------|
E|-------------------------------------------------|



Verse:

E|-----------------------------------|
B|-----------------------------------|
G|---------------9---7-----------9---|
D|---7-----------9---7-----------9---| x4
A|---7-----------7---5-----------7---|
E|---5-------------------------------| 


Pre-Chorus:

E|-----------------------------------------|
B|-----------------------------------------|
G|---7---9---------------6-------6---7/9---|
D|---7---9---7---5---4---6---4---6---7/9---|
A|---5---7---7---5---4---4---4---4---5/7---|
E|-----------5---3---2-------2-------------|


Chorus:


E|---------------|    E|-------------------|
B|---------------|    B|-------------------|
G|-------7---9---| x2 G|-------6---7---9---|
D|---7---7---9---|    D|---4---6---7---9---| Repeat then.. 
A|---7---5---7---|    A|---4---4---5---7---|
E|---5-----------|    E|---2---------------|

E|---------------|
B|---------------|
G|---4---7---9---|
D|---4---7---9---|
A|---2---5---7---|
E|---------------|


To listen to the song copy the link below:
http://www.stevecarellonline.com/media/music/audio/Comebacks-DunderandDwightning.mp3
Tap to rate this tab
 
# A B C D E F G H I J K L M N O P Q R S T U V W X Y Z