Song name
# A B C D E F G H I J K L M N O P Q R S T U V W X Y Z

Sweet Matthew - Sick Of Myself tab

Intro solo
e|------------------------------------------------|
B|-0-3-5-7--7-7-8-7-5-3---0-3-5-7-8-7-5-3-0-5-3---|
G|------------------------------------------------|
D|------------------------------------------------|
A|------------------------------------------------|
E|------------------------------------------------|

Verse (also starting chord)
e|-----------------------------|
B|-----------------------------|
G|-7------7------7------7------|
D|-7--7-5-7--7-5-7--7-5-7--7-5-|
A|-5--7-5-5--7-5-5--7-5-5--7-5-|
E|----5-3----5-3----5-3----5-3-|

Pre-chorus
e|---------------------------------|
B|---------------------------------|
G|-7-7-7-7-------------------------|
D|-7-7-7-7-7-7-7-7-5-5-5-5-7-7-7-7-|
A|-5-5-5-5-7-7-7-7-5-5-5-5-7-7-7-7-|
E|---------5-5-5-5-3-3-3-3-5-5-5-5-|

Chorus
e|---------------------------------|
B|---------------------------------|
G|-----------------7-7-7-7---------|
D|-5-5-5-5-7-7-7-7-7-7-7-7-5-5-5-5-|
A|-5-5-5-5-7-7-7-7-5-5-5-5-5-5-5-5-|
E|-3-3-3-3-5-5-5-5---------3-3-3-3-|

End-chorus (1st)
e|----------------|
B|----------------|
G|----------------|
D|-5-5-5-5-7--7---|
A|-5-5-5-5-7--7---|
E|-3-3-3-3-5--5---|

End-chorus (2nd)
e|--------------------------|
B|--------------------------|
G|-----------------7--7--7--|
D|-5-5-5-5-7-7-7-7-7--7--7--|
A|-5-5-5-5-7-7-7-7-5--5--5--|
E|-3-3-3-3-5-5-5-5----------|

**Sorry I cant figure out the solo. Any feedback, mail me: azwan082@yahoo.com
Tap to rate this tab
 
# A B C D E F G H I J K L M N O P Q R S T U V W X Y Z