Song name
# A B C D E F G H I J K L M N O P Q R S T U V W X Y Z

Sweet Matthew - Vertigo tab

Help us improve GuitareTab! Take a short survey!
                              VERTIGO
                                As recorded by U2
              (From the 2004 Album HOW TO DISMANTLE AN ATOMIC BOMB)

Words and Music by U2

          D5                   E5                   A5                   G#5
      x 5 7 7 x x          0 7 9 9 x x          5 7 7 x x x          4 6 6 x x x

          G5                    E                    D                 G5open
      3 5 5 x x x          0 7 9 9 9 x          x 5 7 7 7 x          3 x 0 0 3 3

         A5II                   A                  Dopen                Eopen
      x 0 2 2 5 5          x 0 2 2 2 0          x x 0 2 3 2          0 2 2 1 0 0

Gtr I (E A D G B E) - 'Untitled'
Gtr II (E A D G B E) - 'Untitled'

 Intro
    Q=140
    N.C.
 4/4
    Gtr I
  E E E E E E E E   E E E E E E E E   E E E E E E E E
|---x---x---x-x---|---x---x---x-x---|-x-x---x---x-x---|
|---x---x---x-x---|---x---x---x-x---|-x-x---x---x-x---|
|---x---x---x-x---|---x---x---x-x---|-x-x---x---x-x---|
|---x---x---x-x---|---x---x---x-x---|-x-x---x---x-x---|
|---x---x---x-x---|---x---x---x-x---|-x-x---x---x-x---|
|-----------------|-----------------|-----------------|


                D5        E5  D5E5  D5E5    A5      G#G5D5
  E E E E E E E S S     E E E E E E E E   E E E E E E E S S  4x
|-x-x---x---x-x-----||------------------|--------------------||
|-x-x---x---x-x-----||o-----------------|-------------------o||
|-x-x---x---x-x-7-7-||--7-9-9-7-9-9-7-9-|---------------7-7--||
|-x-x---x---x-x-7-7-||--7-9-9-7-9-9-7-9-|---7-7-7-7-6-5-7-7--||
|-x-x---x---x-x-5-5-||o-5-7-7-5-7-7-5-7-|---7-7-7-7-6-5-5-5-o||
|-------------------||------------------|-0-5-5-5-5-4-3------||


   Verse
    N.C.
    PM
    Q  E E H      W          Q  E E Q  E E   Q  E E Q  E E
||-------x------|----------|----x------x---|----x------x-x-|
||o------x------|----------|----x------x---|----x------x-x-|
||-------x------|----------|----x------x---|----x------x-x-|
||-------x------|----------|----x------x---|----x------x-x-|
||o-7-----------|----------|---------------|---------------|
||--------------|----------|---------------|---------------|


  Q  E E Q  E E   Q  E E Q  E E   Q  E E Q  E E
|------x------x-|------x----x-x-|----x------x-x-|
|------x------x-|------x----x-x-|----x------x-x-|
|------x------x-|------x----x-x-|----x------x-x-|
|------x------x-|------x----x-x-|----x------x-x-|
|---------------|---------------|---------------|
|---------------|---------------|---------------|


              Gtr II
  W            Q   E  E  +E   E  E  E    Q   E  E  +E   E  E  E
|----------||-12-----10-(10)----10----|-12-----10-(10)----10----|
|----------||-----12---------12----12-|-----12---------12----12-|
|----------||-------------------------|-------------------------|
|----------||-------------------------|-------------------------|
|----------||-------------------------|-------------------------|
|----------||-------------------------|-------------------------|


   Q   E  E  +E   E  E  E    Q   E  E  +E   E E  E    Q   E  E  +E   E E  E
|-12-----10-(10)----10----|-12-----10-(10)---------|-12-----10-(10)---------|
|-----12---------12----12-|-----12---------12---12-|-----12---------12---12-|
|-------------------------|-------------------7----|-------------------7----|
|-------------------------|------------------------|------------------------|
|-------------------------|------------------------|------------------------|
|-------------------------|------------------------|------------------------|


                                                                      E
                                                                      Gtr I
   Q   E  E  +E   E E  E    Q   E  E  +E   E E  E    Q   E  E  +E   E E S S
|-12-----10-(10)---------|-12-----10-(10)---------|-12-----10-(10)----------||
|-----12---------12---12-|-----12---------12---12-|-----12---------12-------||
|-------------------7----|-------------------7----|---------------------9-9-||
|------------------------|------------------------|-------------------9-9-9-||
|------------------------|------------------------|-------------------7-7-7-||
|------------------------|------------------------|-------------------0-----||


 Chorus
                     D
  H    E E E E   +E  E Q  +E  E E S S
|--------------|----------------------|
|-9----9-9-9-9-|-(9)-7-7--(7)-7-7-0-0-|
|-9----9-9-9-9-|-(9)-7-7--(7)-7-7-0-0-|
|-9----9-9-9-9-|-(9)-7-7--(7)-7-7-0-0-|
|-7----7-7-7-7-|-(7)-5-5--(5)-5-5-----|
|--------------|----------------------|


  G5open            A5II             E
  Q  Q  E E E E   E E Q  +E  E E E   Q  Q  +E  E E E
|-------3-3-3-3-|---5-5--(5)-------|-----------------|
|-------3-3-3-3-|---5-5--(5)-------|-----------9-9-9-|
|-0-----0-0-0-0-|-0-2-2--(2)-2-2-0-|----9--(9)-9-9-9-|
|-0-----0-0-0-0-|-0-2-2--(2)-2-2-0-|-9--9--(9)-9-9-9-|
|-x-------------|-x-0-0--(0)-0-0-0-|-7--7--(7)-7-7-7-|
|-3--3----------|-3----------------|-0---------------|


      D                  G5open              A5II             D5E5  D5E5  D5E5
  +E  E Q  +E  E E S S   Q  Q  +E  E E E   E E Q  E E E S S   E E E E E E E E
|----------------------|-3--3--(3)-3-3-3-|---5-5--5-5-5-----|------------------|
|-(9)-7-7--(7)-7-7-0-0-|-3--3--(3)-3-3-3-|---5-5--5-5-5-----|------------------|
|-(9)-7-7--(7)-7-7-0-0-|-0--0--(0)-0-0-0-|-0-2-2--2-2-2-0-0-|-7-9-9-7-9-9-7-9--|
|-(9)-7-7--(7)-7-7-0-0-|-0--0--(0)-0-0-0-|-0-2-2--2-2-2-0-0-|-7-9-9-7-9-9-7-9--|
|-(7)-5-5--(5)-5-5-----|-2--2--(2)-2-2-2-|-x-0-0--0-0-0-0-0-|-5-7-7-5-7-7-5-7--|
|----------------------|-3--3--(3)-3-3-3-|-3----------------|------------------|


                                       1.
    A5      G#G5D5      E5  D5E5  D5E5    A5      G#G5D5
  E E E E E E E S S   E E E E E E E E   E E E E E E E S S
|-------------------|-----------------|--------------------||
|-------------------|-----------------|-------------------o||
|---------------7-7-|-7-9-9-7-9-9-7-9-|---------------x-x--||
|---7-7-7-7-6-5-7-7-|-7-9-9-7-9-9-7-9-|---7-7-7-7-6-5-x-x--||
|---7-7-7-7-6-5-5-5-|-5-7-7-5-7-7-5-7-|---7-7-7-7-6-5-x-x-o||
|-0-5-5-5-5-4-3-----|-----------------|-0-5-5-5-5-4-3------||


                    Interlude
  2.
    A5      G#G5A      G5oDopen A             G5open      Dopen A
  E E E E E E E E    E Q  E E E Q    +H.      E E   E E E E E E Q
|-----------------||------2-2---0--|-(0)----------|-3-3-3-2-2---0---|
|-----------------||---3--3-3---2--|-(2)------3-3-|-3-3-3-3-3---2---|
|---------------2-||-2-0--2-2---2--|-(2)------0-0-|-0-0-0-2-2---2---|
|---7-7-7-7-6-5-2-||-2-0--0-0---2--|-(2)------0-0-|-0-0-0-0-0---2---|
|---7-7-7-7-6-5-0-||-0-x------0-0--|-(0)----------|-x-x-x-----0-0---|
|-0-5-5-5-5-4-3---||---3-----------|--------------|-3-3-3-----------|


             G5open        Dopen A
  +H     +E  E E E   E E E E E E Q    E Q  E E E E E
|-(0)----(0)-------|-3-3-3-2-2---0--|-0-0--0-0-0-0---||
|-(2)----(2)-3-3---|-3-3-3-3-3---2--|-2-2--2-2-2-2---||
|-(2)----(2)-0-0---|-0-0-0-2-2---2--|-2-2--2-2-2-2---||
|-(2)----(2)-0-0---|-0-0-0-0-0---2--|-2-2--2-2-2-2---||
|-(0)----(0)-------|-x-x-x-----0-0--|-0-0--0-0-0-0---||
|----------------3-|-3-3-3----------|--------------0-||


 Guitar Solo
  D5E5    D5 E5   D5 E5     A5    G#G5    D5
  Gtr II
  E  E  E  E E  E  E  E   E E E E E  E  E  E
|---12-12-12---12-12-12-|----------------------|
|---10-10-10----9--9--9-|---9-9-9---10-10-10---|
|-----------------------|---9-9-9---11-11-11---|
|-----------------------|----------------------|
|-----------------------|----------------------|
|-----------------------|----------------------|
|
| Gtr I
| E  E  E  E E  E  E  E   E E E E E  E  E  S S
|-----------------------|----------------------|
|-----------------------|----------------------|
|-7--9--9--7-9--9--7--9-|------------------7-7-|
|-7--9--9--7-9--9--7--9-|---7-7-7-7--6--5--7-7-|
|-5--7--7--5-7--7--5--7-|---7-7-7-7--6--5--5-5-|
|-----------------------|-0-5-5-5-5--4--3------|


  D5E5    D5 E5   D5 E5     A5    G#G5    D5
  E  E  E  E E  E  E  E   E E E E E  E  E  E
|---12-12-12---12-12-12-|-----------------------|
|---10-10-10----9--9--9-|---9-9-9-9-10-10-10----|
|-----------------------|---9-9-9-9-11-11-11----|
|-----------------------|-----------------------|
|-----------------------|-----------------------|
|-----------------------|-----------------------|
|
| E  E  E  E E  E  E  E   E E E E E  E  E  S S
|-----------------------|-----------------------|
|-----------------------|-----------------------|
|-7--9--9--7-9--9--7--9-|------------------7-7--|
|-7--9--9--7-9--9--7--9-|---7-7-7-7--6--5--7-7--|
|-5--7--7--5-7--7--5--7-|---7-7-7-7--6--5--5-5--|
|-----------------------|-0-5-5-5-5--4--3-------|


  D5E5    D5 E5   D5 E5     A5    G#G5    D5
  Gtr II
  E  E  E  E E  E  E  E   E E E E E  E  E  E
|---12-12-12---12-12-12-|----------------------|
|---10-10-10----9--9--9-|---9-9-9---10-10-10---|
|-----------------------|---9-9-9---11-11-11---|
|-----------------------|----------------------|
|-----------------------|----------------------|
|-----------------------|----------------------|
|
| E  E  E  E E  E  E  E   E E E E E  E  E  S S
|-----------------------|----------------------|
|-----------------------|----------------------|
|-7--9--9--7-9--9--7--9-|------------------7-7-|
|-7--9--9--7-9--9--7--9-|---7-7-7-7--6--5--7-7-|
|-5--7--7--5-7--7--5--7-|---7-7-7-7--6--5--5-5-|
|-----------------------|-0-5-5-5-5--4--3------|


  D5E5    D5 E5   D5 E5     A5    G#G5
  E  E  E  E E  E  E  E   E E E E E  E  Q
|---12-12-12---12-12-12-|----------------------||
|---10-10-10----9--9--9-|---9-9-9-9-10-10------||
|-----------------------|---9-9-9-9-11-11------||
|-----------------------|----------------------||
|-----------------------|----------------------||
|-----------------------|----------------------||
|
| E  E  E  E E  E  E  E   E E E E E  E  E S S
|-----------------------|----------------------||
|-----------------------|----------------------||
|-7--9--9--7-9--9--7--9-|-----------------7-7--||
|-7--9--9--7-9--9--7--9-|---7-7-7-7--6--5-7-7--||
|-5--7--7--5-7--7--5--7-|---7-7-7-7--6--5-5-5--||
|-----------------------|-0-5-5-5-5--4--3------||


 Bridge
  N.C.
  E  E  Q   +H        +W           E  E  Q   +H        +W
|------19--(19)----|-(19)--------|------17--(17)----|-(17)----|
|---20-------------|-------------|---17-------------|---------|
|-0----------------|-------------|-0----------------|---------|
|------------------|-------------|------------------|---------|
|------------------|-------------|------------------|---------|
|------------------|-------------|------------------|---------|


  E  E  Q   +H        +W           E  E  Q   +H       E  E   Q    +H
|------19--(19)----|-(19)--------|------17--(17)----|-------15---(15)----||
|---20-------------|-------------|---17-------------|---17---------------||
|-0----------------|-------------|-0----------------|-0-(0)-(0)---(0)----||
|------------------|-------------|------------------|--------------------||
|------------------|-------------|------------------|--------------------||
|------------------|-------------|------------------|--------------------||


 Chorus
  E                   D              G5open
  Gtr I
  Q  Q  E E E E   +E  E Q  E E E E   Q  Q  E E E E
|---------------|------------------|-3--3--3-3-3-3-|
|-9--9--9-9-9-9-|-(9)-7-7--7-7-7-0-|-3--3--3-3-3-3-|
|-9--9--9-9-9-9-|-(9)-7-7--7-7-7-0-|-0--0--0-0-0-0-|
|-9--9--9-9-9-9-|-(9)-7-7--7-7-7-0-|-0--0--0-0-0-0-|
|-7--7--7-7-7-7-|-(7)-5-5--5-5-5---|-x--x--x-x-x-x-|
|---------------|------------------|-3--3--3-3-3-3-|


    A5II           E                   D
  E E Q  E E E E   Q  Q  E E E E   +E  E Q  E E E E
|---5-5--5-5-5---|---------------|------------------|
|---5-5--5-5-5-0-|-9--9--9-9-9-9-|-(9)-7-7--7-7-7-0-|
|-0-2-2--2-2-2-0-|-9--9--9-9-9-9-|-(9)-7-7--7-7-7-0-|
|-0-2-2--2-2-2-0-|-9--9--9-9-9-9-|-(9)-7-7--7-7-7-0-|
|-x-0-0--0-0-0-0-|-7--7--7-7-7-7-|-(7)-5-5--5-5-5---|
|-3--------------|---------------|------------------|


  G5open            A5II           E
  Q  Q  E E E E   E E Q  E E E E    Q  Q   E E E E
|-3--3--3-3-3-3-|---5-5--5-5-5---|-----------------|
|-3--3--3-3-3-3-|---5-5--5-5-5-0-|--9--9---9-9-9-9-|
|-0--0--0-0-0-0-|-0-2-2--2-2-2-0-|--9--9---9-9-9-9-|
|-0--0--0-0-0-0-|-0-2-2--2-2-2-0-|--9--9---9-9-9-9-|
|-x--x--x-x-x-x-|-x-0-0--0-0-0-0-|--7--7---7-7-7-7-|
|-3--3--3-3-3-3-|-3--------------|-----------------|
|
| Gtr II
| W               W                 Q  Q   E E E E
|---------------|----------------|-----------------|
|---------------|----------------|-10-----10-----7-|
|---------------|----------------|-----9-----9-7---|
|---------------|----------------|-----------------|
|---------------|----------------|-----------------|
|---------------|----------------|-----------------|


  D                   G5open                A5II
  +E  E  Q  E E E E   Q   Q   E E E E    E  E Q    E  E  E E
|-------------------|-3---3---3-3-3-3-|-----5-5----5--5--5---|
|-(9)-7--7--7-7-7-0-|-3---3---3-3-3-3-|-----5-5----5--5--5-0-|
|-(9)-7--7--7-7-7-0-|-0---0---0-0-0-0-|--0--2-2----2--2--2-0-|
|-(9)-7--7--7-7-7-0-|-0---0---0-0-0-0-|--0--2-2----2--2--2-0-|
|-(7)-5--5--5-5-5---|-x---x---x-x-x-x-|--x--0-0----0--0--0-0-|
|-------------------|-3---3---3-3-3-3-|--3-------------------|
|
| +E  Q.    H         E E E E Q   E E   +E  Q   E +E  Q.
|-------------------|-----------------|----------------------|
|-(7)---------------|-----------------|----------------------|
|-----7-----7-------|-7-9-7-6-7-----7-|-(7)-9---9-(9)-9------|
|-------------------|-------------9---|----------------------|
|-------------------|-----------------|----------------------|
|-------------------|-----------------|----------------------|


  E                     D              G5open
   Q  Q   E E E E   +E  E Q  E E E E   Q   Q   E E E E
|-----------------|------------------|-3---3---3-3-3-3-|
|--9--9---9-9-9-9-|-(9)-7-7--7-7-7-0-|-3---3---3-3-3-3-|
|--9--9---9-9-9-9-|-(9)-7-7--7-7-7-0-|-0---0---0-0-0-0-|
|--9--9---9-9-9-9-|-(9)-7-7--7-7-7-0-|-0---0---0-0-0-0-|
|--7--7---7-7-7-7-|-(7)-5-5--5-5-5---|-x---x---x-x-x-x-|
|-----------------|------------------|-3---3---3-3-3-3-|
|
|  Q  Q   E E E E   +E  E Q  E E E E   E E E E Q   E E
|-----------------|------------------|-----------------|
|-10-----10-----7-|-(7)-7-7--7-7-7-7-|-----------------|
|-----9-----9-7-7-|-(7)-7-7--7-7-7-7-|-7-9-7-6-7-----7-|
|-----------------|------------------|-------------9---|
|-----------------|------------------|-----------------|
|-----------------|------------------|-----------------|


                           Outro
      A5II                  D5 E5    D5E5  D5E5
   E  E Q    E  E E  E       E  E  E E E E E E
|-----5-5----5--5-5-------|--------------------|
|-----5-5----5--5-5--0----|--------------------|
|--0--2-2----2--2-2--0----|--7--9--9-7-9-9-7-9-|
|--0--2-2----2--2-2--0----|--7--9--9-7-9-9-7-9-|
|--x--0-0----0--0-0--0----|--5--7--7-5-7-7-5-7-|
|--3----------------------|--------------------|
|
| +E  Q   E +E  E E.    S    E  Q.     H
|-------------------------|-12-----------------|
|-------------------------|-14-12--------------|
|-(7)-9---9-(9)-9-9/---16-|--------------------|
|-------------------------|--------------------|
|-------------------------|--------------------|
|-------------------------|--------------------|


    A5      G#G5 D5        E5    D5E5  D5E5
  E E E E E E  E  S S    E  E  E E E E E E
|---------------------|---------------------|
|---------------------|---------------------|
|-----------------7-7-|--7--9--9-7-9-9-7-9--|
|---7-7-7-7-6--5--7-7-|--7--9--9-7-9-9-7-9--|
|---7-7-7-7-6--5--5-5-|--5--7--7-5-7-7-5-7--|
|-0-5-5-5-5-4--3------|---------------------|
|
| H       Q    E  E      E  Q.     H
|-------------12------|-12------------------|
|-------------13-12---|-14-12---------------|
|---------------------|---------------------|
|---------------------|---------------------|
|---------------------|---------------------|
|---------------------|---------------------|


    A5      G#G5D5       E5    D5E5     D5E5       A5      G#G5 D5
  E E E E E E E S S    E  E  E E   E  E E E     E  E E E E E  E  S S
|-------------------|-----------------------|------------------------|
|-------------------|-----------------------|------------------------|
|---------------7-7-|--7--9--9-7---9--9-7-9-|--------------------7-7-|
|---7-7-7-7-6-5-7-7-|--7--9--9-7---9--9-7-9-|------7-7-7-7-6--5--7-7-|
|---7-7-7-7-6-5-5-5-|--5--7--7-5---7--7-5-7-|------7-7-7-7-6--5--5-5-|
|-0-5-5-5-5-4-3-----|-----------------------|---0--5-5-5-5-4--3------|
|
| W                    E  Q.      +H           +H        Q    E  E
|-------------------|-12--------------------|----------------12------|
|-------------------|-14-12------(12)-------|-(12)-----------13-12---|
|-------------------|-----------------------|------------------------|
|-------------------|-----------------------|------------------------|
|-------------------|-----------------------|------------------------|
|-------------------|-----------------------|------------------------|


     E5    D5E5  D5E5    A5      G#G5    Eopen
   E  E  E E E E E E   E E E E E E E E   W
|--------------------|-----------------|-0----*|
|--------------------|-----------------|-0----*|
|--7--9--9-7-9-9-7-9-|-----------------|-1----*|
|--7--9--9-7-9-9-7-9-|---7-7-7-7-6-5---|-2----*|
|--5--7--7-5-7-7-5-7-|---7-7-7-7-6-5---|-2----*|
|--------------------|-0-5-5-5-5-4-3-0-|-0----*|
|
|  E  Q.     H         W                 W
|-12-----------------|-----------------|------*|
|-14-12--------------|-----------------|------*|
|--------------------|-----------------|------*|
|--------------------|-----------------|------*|
|--------------------|-----------------|------*|
|--------------------|-----------------|------*|


Duration Legend
---------------
W - whole; H - half; Q - quarter; E - 8th; S - 16th; T - 32nd; X - 64th; a - acciaccatura
+ - note tied to previous; . - note dotted; .. - note double dotted
Uncapitalized letters represent notes that are staccato (1/2 duration)
Irregular groupings are notated above the duration line
Duration letters will always appear directly above the note/fret number it represents the
duration for.  Duration letters with no fret number below them represent rests.  Multi-
bar rests are notated in the form Wxn, where n is the number of bars to rest for.  Low
melody durations appear below the staff

Tablature Legend
----------------
 h   - hammer-on
 p   - pull-off
 b   - bend
 pb  - pre-bend
 r   - bend release (if no number after the r, then release immediately)
 /\  - slide into or out of (from/to "nowhere")
 s   - legato slide
 S   - shift slide
  - natural harmonic
[n]  - artificial harmonic
n(n) - tapped harmonic
 ~   - vibrato
 tr  - trill
 T   - tap
 TP  - trem. picking
 PM  - palm muting
\n/  - tremolo bar dip; n = amount to dip
 \n  - tremolo bar down
 n/  - tremolo bar up
/n\  - tremolo bar inverted dip
 =   - hold bend; also acts as connecting device for hammers/pulls
 <>  - volume swell (louder/softer)
 x   - on rhythm slash represents muted slash
 o   - on rhythm slash represents single note slash

Misc Legend
-----------
 |  - bar
||  - double bar
||o - repeat start
o|| - repeat end
*|  - double bar (ending)
 :  - bar (freetime)
 $  - Segno
 &  - Coda
Tempo markers -  = BPM(8/16=s8/s16), where s8 = swing 8ths, s16 = swing 16ths
Related for Vertigo tab