Guitaretab - guitar tabs
Song name
# A B C D E F G H I J K L M N O P Q R S T U V W X Y Z

Sweet Matthew - Vixen tab

Alright, the other tab on here was pretty miserable when it came to the ska chords, so I
I'd just give the general idea of whats going on.  This song shouldn't be very
at all, so I'm gonna leave out most of the rhythm (also because it's my first tab and 
lazy, sorry.  You should be able to figure it out no problem with the song anyway.)

Intro/Verse (Use a down up strum or two to start each chord, then a few slower
then another down/up.  Adjust to your liking. Fairly Clean sound.)
e-8-8--8--8--8--8--8--8-8-8--7-7--7--7--5-5--5--5-5-5-|
B-8-8--8--8--8--8--8--8-8-8--8-8--8--8--5-5--5--5-5-5-|
G-9-9--9--9--9--9--9--9-9-9--9-9--9--9--5-5--5--5-5-5-|
D-----------------------------------------------------|
A-----------------------------------------------------|
E-----------------------------------------------------|
Play that twice, then the strumming changes a little bit, but the chord progression is
same, so just work it out.

Chorus (kick in the distortion):

e----------------------|
B----------------------|
G----------------------|
D-5--5--5--5-5-5-5-5-5-|
A-5--5--5--5-5-5-5-5-5-|
E-3--3--3--3-3-3-3-3-3-| X1 then
[ Tab from: http://www.guitaretab.com/s/sweet-matthew/18877.html ]
e----------------------------------------------|
B----------------------------------------------|
G--5--5--5-5-----------------------------------|
D--5--5--5-5-3-3-3-3--3--7--7-7-7--5-5-5-5-5---|
A--3--3--3-3-3-3-3-3--3--7--7-7-7--5-5-5-5-5---|
E------------1-1-1-1--1--5--5-5-5--3-3-3-3-5---|  x4

ska part again

chorus part again

Bridge:

e----------------------------|
B----------------------------|
G----------------------------|
D-3----5----2----7----3----5-|
A-3----5----2----7----3----5-|
E-1----3----0----5----1----3-|

Pick slide back into chorus part-chorus continues till end

Soloish things played with ending chorus

e-------------8-8-8-8--12--12--12--12-12-12-15--15--15--15-13-12-13-12-10----|
B-------------8-8-8-8-----------------------------------------------------13-|
G-9--9--9--9--9-9-9-9--------------------------------------------------------|
D----------------------------------------------------------------------------|
A----------------------------------------------------------------------------|
E----------------------------------------------------------------------------|

First 4 nines with quick somewhat uneven vibrato, then the 12's and first 3 15's too.
something like that.  It's kinda hard to tell.  It isn't anything too terribly fancy, so
can improvise and spice it up a bit if you want.

Also, if you really want to, the chorus and bridge can be played with full barre chords,
577 and 022 chords seem to be minor barre's, the rest seem to be major.

Hope this helps anyone having trouble with this song.  Happy playing :).
-TLE65
Related for Vixen tab