Sweethaven - Go Back tab

 this is my first tab. although i think this is exactly how it is played but i might be 
by a few notes though i was kinda rushed out of making this. but i know its really 
so have fun learning and playing this


intro:

e|--------------------0-------------------------0------------------------|
b|--1--------1--3--1-----1--1--------0h1--3--1-----1--1--------0h1--3--1-|
g|--------0-----------------------0-------------------------2------------|
d|-----2-----------------------0-------------------------2---------------|
a|--3-------------------------------------------------0------------------|
e|--------------------------3--------------------------------------------|


e|--------------------0-----------------------3p1--------------1--0h1p0-|
b|-----------------0-----0-----------------1----------------1-----------|
g|--2-----------0-----------0-----------2----------------0--------------|
d|-----2-----2-----------------2-----3----------------2-----------------|
a|-------------------------------------------------3--------------------|
e|--------0-----------------------1-------------------------------------|


e|--------------------3-----------------------1---|
b|--1--------------0-----1-----------------1------|
g|-----0--------0-----------0-----------2---------|
d|-----------0-----------------------3------------|
a|------------------------------------------------|
e|--------3--------------------0--1---------------|


verse 1:

e|-------------------0-----------------------3-----------------0---------|
b|--1-------1--3--1-----1--1--------1--0--------------------1-----1------|
g|-------0-----------------------0--------0-----0--------2-----------2---|
d|-----1----------------------0-----------------------2-----------------2|
a|--3----------------------3-----------------------0---------------------|
e|-----------------------------------------------------------------------|


e|--------------0-----------------------3--1--------------------1--0--1--0|
b|-----------0-----0-----------------1--------1---------------------------|
g|--------0-----------0-----------2--------------2-----------0------------|
d|-----2-----------------------3--------------------------2---------------|
a|--------------------------------------------------3--3------------------|
e|--0--------------------0--1---------------------------------------------|


e|--------------------3--------------------------1|
b|--1--------------0-----0--------------------1---|
g|-----0--------0-----------0--------------2------|
d|-----------0-----------------0--------3---------|
a|------------------------------------------------|
e|--------3-----------------------0--1------------|


e|-------------------0-----------------------3-----------------0---------|
b|--1-------1--3--1-----1--1--------1--0--------------------1-----1------|
g|-------0-----------------------0--------0-----0--------2-----------2---|
d|-----1----------------------0-----------------------2-----------------2|
a|--3----------------------3-----------------------0---------------------|
e|-----------------------------------------------------------------------|


e|--------------0-----------------------3--1--------------------1--0--1--0|
b|-----------0-----0-----------------1--------1---------------------------|
g|--------0-----------0-----------2--------------2-----------0------------|
d|-----2-----------------------3--------------------------2---------------|
a|--------------------------------------------------3--3------------------|
e|--0--------------------0--1---------------------------------------------|


e|--------------------3--------------------------1|
b|--1--------------0-----0--------------------1---|
g|-----0--------0-----------0--------------2------|
d|-----------0-----------------0--------3---------|
a|------------------------------------------------|
e|--------3-----------------------0--1------------|


chorus: (cords) (listen to the song for timing and strumming)
C F G C C A G C

verse 2: (cords)
C G Am Em F C G

chorus:
C F G C C A G C

verse 3:
F G C F G C F C F D G

chorus:
C F G C C A G C

outro:
C Am G C

intro: (start playing this as soon as you play the last cord)

e|--------------------0-------------------------0------------------------|
b|--1--------1--3--1-----1--1--------0h1--3--1-----1--1--------0h1--3--1-|
g|--------0-----------------------0-------------------2------------------|
d|-----2-----------------------0----------------------2------------------|
a|--3-------------------------------------------------0------------------|
e|--------------------------3--------------------------------------------|


e|--------------------0-----------------------3p1--------------1--0h1p0-|
b|-----------------0-----0-----------------1----------------1-----------|
g|--2-----------0-----------0-----------2----------------0--------------|
d|-----2-----2-----------------2-----3----------------2-----------------|
a|-------------------------------------------------3--------------------|
e|--------0-----------------------1-------------------------------------|


e|--------------------3-----------------------1---|
b|--1--------------0-----1-----------------1--1---|
g|-----0--------0-----------0-----------2-----2---|
d|-----------0-----------------------3--------3---|
a|------------------------------------------------|
e|--------3--------------------0--1---------------|
Tap to rate this tab
 
# A B C D E F G H I J K L M N O P Q R S T U V W X Y Z