Song name
# A B C D E F G H I J K L M N O P Q R S T U V W X Y Z

Sweethead - Traumatized And Dumb tab

Sweethead - Traumatized and Dumb

Tabbed By: Mark DiFranco


Tuning - E A D G B e
 

Intro:

e|---0-0~---------------------0--0~-------------0-------0-0~----------| 
B|---5-5~------5------5-------8--8~------8---------8----3-3~------3---|
G|---6-6~--6------6------6----9--9~--9------9--------9--4-4~--4-------| 
D|---7-7~----7------7------7--10-10~---10-----10--------5-5~----5-----|
A|---7-7~---------------------10-10~--------------------5-5~----------| 
E|--------------------------------------------------------------------| 

e|-------0-------0-0~-------------------------------------------------| 
B|----------3----5-5~------5------5-----------------------------------|
G|---4--------4--6-6~--6------6------6--------------------------------| 
D|-----5---------7-7~----7------7------7------------------------------|
A|---------------7-7~-------------------------------------------------| 
E|--------------------------------------------------------------------|


Chorus(w/ distortion):

e|--0-0-0-0-0-0-0-0-0-0-0-0-0-0-0-0--0--0--0--0--0--0--0--0--0--0--0--| 
B|--5-5-5-5-5-5-5-5-5-5-5-5-5-5-5-8--8--8--8--8--8--8--8--8--8--8--8--|
G|--6-6-6-6-6-6-6-6-6-6-6-6-6-6-6-9--9--9--9--9--9--9--9--9--9--9--9--| 
D|--7-7-7-7-7-7-7-7-7-7-7-7-7-7-7-10-10-10-10-10-10-10-10-10-10-10-10-|
A|--7-7-7-7-7-7-7-7-7-7-7-7-7-7-7-10-10-10-10-10-10-10-10-10-10-10-10-| 
E|--------------------------------------------------------------------| 

e|-0--0--0--0--0-0-0-0-0-0-0-0-0-0-0-0-0-0-0-0-0-0-0-0-0-0-0-0-0-0-0--| 
B|-8--8--8--8--3-3-3-3-3-3-3-3-3-3-3-3-3-3-3-3-5-5-5-5-5-5-5-5-5-5-5--|
G|-9--9--9--9--4-4-4-4-4-4-4-4-4-4-4-4-4-4-4-4-6-6-6-6-6-6-6-6-6-6-6--| 
D|-10-10-10-10-5-5-5-5-5-5-5-5-5-5-5-5-5-5-5-5-7-7-7-7-7-7-7-7-7-7-7--|
A|-10-10-10-10-5-5-5-5-5-5-5-5-5-5-5-5-5-5-5-5-7-7-7-7-7-7-7-7-7-7-7--| 
E|--------------------------------------------------------------------|

e|-0-0-0-0-0----------------------------------------------------------| 
B|-5-5-5-5-5----------------------------------------------------------|
G|-6-6-6-6-6----------------------------------------------------------| 
D|-7-7-7-7-7----------------------------------------------------------|
A|-7-7-7-7-7----------------------------------------------------------| 
E|--------------------------------------------------------------------|


Bridge:
e|--------------------------------------------------------------------| 
B|--------------------------------------------------------------------|
G|--------------------------------------------------------------------| 
D|---7-7-7-7-7-7-7-7-x-2-2-2-2-2-2-2/9-9-9-9-9-9-9-9-9-9-9-9-9-9-9-9--| (x3)
A|---7-7-7-7-7-7-7-7-x-2-2-2-2-2-2-2/9-9-9-9-9-9-9-9-9-9-9-9-9-9-9-9--| 
E|---5-5-5-5-5-5-5-5-x-0-0-0-0-0-0-0/7-7-7-7-7-7-7-7-7-7-7-7-7-7-7-7--| 

e|--------------------------------------------------------------------| 
B|--------------------------------------------------------------------|
G|--------------------------------------------------------------------| 
D|---7-7-7-7-7-7-7-7-x-2-2-2-2-2-2-2/12-12-12-12-12-12-12-12-12-12-12-| 
A|---7-7-7-7-7-7-7-7-x-2-2-2-2-2-2-2/12-12-12-12-12-12-12-12-12-12-12-| 
E|---5-5-5-5-5-5-5-5-x-0-0-0-0-0-0-0/10-10-10-10-10-10-10-10-10-10-10-| 

e|--------------------------------------------------------------------| 
B|--------------------------------------------------------------------|
G|--------------------------------------------------------------------| 
D|-12-12-12-12-12-----------------------------------------------------|
A|-12-12-12-12-12-----------------------------------------------------| 
E|-10-10-10-10-10-----------------------------------------------------|
Tap to rate this tab
 
# A B C D E F G H I J K L M N O P Q R S T U V W X Y Z