Song name
# A B C D E F G H I J K L M N O P Q R S T U V W X Y Z

Sweethead - Meet In The Road tab

Sweethead - Meet in the Road

Tabbed By: Mark DiFranco

Tuning - E A D G B e
  

Main Riff:
e|--------------------------------------------------------------------| 
B|--------------------------------------------------------------------|
G|---7-7--7h9-9-------------------------------------------------------| 
D|---7-7--7---7--7h9--7-9-9--7-9-7---7-7-7h9-9------9-9--7-9----------|
A|---------------7----7-7-7--7-7-7---7-7-7---7------7-7--7-7----------| 
E|---------------------------------------------0--0-------------------| 


Secondary Main Riff:
e|--------------------------------------------------------------------| 
B|--------------------------------------------------------------------|
G|--------------------------------------------------------------------| 
D|----------------------------9-9--7-9--------------------------------|
A|----------------------------7-7--7-7--------------------------------| 
E|---10-0-10-0-10-0-10-0-0--0-----------------------------------------| 


Chorus:
e|-----------2-0-0-0--------------------------------------------------| 
B|---0--0-0--0-0-3-0--------------------------------------------------|
G|---0--0-0--0---------9-9--9-9----------------------9-9--9-9---------| 
D|---0--0-0--0---------9-9--9-9----------------------9-9--9-9---------|
A|---2--2-2--2---------7-7--7-7----------------------7-7--7-7---------| 
E|---3--3-3--3-------0-----------0-5-0-5-0-5-0-5-0-0------------------| 
Tap to rate this tab
# A B C D E F G H I J K L M N O P Q R S T U V W X Y Z