Sweethead - Turned Our Backs tab

Sweethead - Turned Our Backs

Tabbed By: Mark DiFranco

Tuning - E A D G B e
 

Main Riff:
e|--------------------------------------------------------------------| 
B|--------------------------------------------------------------------|
G|--------------------------------------------------------------------| 
D|---12-12-12-12-12-12-12-12-12-12-12-12-12-12-12-12-12-12-12-12-12---|
A|---12-12-12-12-12-12-12-12-12-12-12-12-12-12-12-12-12-12-12-12-12---| 
E|---10-10-10-10-10-10-10-10-10-10-10-10-10-10-10-10-10-10-10-10-10---| 


Neat Riff:
e|-----------------------------------10-10----------------------------| 
B|---------------13-13------------------------------------------------|
G|------11-11---------------11-11-------------------------------------| 
D|---12-------12---------12-------12----------------------------------|
A|--------------------------------------------------------------------| 
E|--------------------------------------------------------------------|


Chorus Riff:
e|--------------------------------------------------------------------| 
B|--------------------------------------------------------------------|
G|-------------11-11-11-11-11-11-11-11-11-11-11-11-11-11-11-11-11-11--| 
D|---2~---5~---12-12-12-12-12-12-12-12-12-12-12-12-12-12-12-12-12-12--|
A|---2~---5~---12-12-12-12-12-12-12-12-12-12-12-12-12-12-12-12-12-12--| 
E|---0~---3~---10-10-10-10-10-10-10-10-10-10-10-10-10-10-10-10-10-10--|
Tap to rate this tab
 
# A B C D E F G H I J K L M N O P Q R S T U V W X Y Z