Song name
# A B C D E F G H I J K L M N O P Q R S T U V W X Y Z

Sweetnam Skye - Make Out Song tab

Skye Sweetnam
Make Out Song
Sound Soldier
2007 EMI Records
Submitted by: paramore_fans@yahoo.com
This is Skye's most PUNK ROCK song in the album. The beat is really fast and the guitar riffs!!!

Key: D

Tuning: Standard EADGBe

Chords used:
Bm -    x24432
D -     xx0232
A -     x02220
F# -    244322
G -     320033
Em -    022000
A/C# -  x476xx
F#/Bb - x143xx


Intro: Bm--D--A--F#--Bm--D--G--F#

Guitar 2:
e|-7-9-------------------|
B|-----10----10----10----|
G|--------11----11----11-|
D|-----------------------| x4
A|-----------------------|
E|-----------------------|

Keyboard: Very fast
e|-2-------2-------2-------2-------0-------0-------2-------2--------|
B|-----3-------3-------3-------3-------2-------2-------2-------2----|
G|---4---4---4---4---2---2---2---2---2---2---2---2---3---3---3---2--|
D|------------------------------------------------------------------|
A|------------------------------------------------------------------|
E|------------------------------------------------------------------|
then
e|-2-------2-------2-------2-------0-------0-------2-------0-|
B|-----3-------3-------3-------3-------2-------2-------2-----|
G|---4---4---4---4---2---2---2---2---2---2---2---2---3---3---|
D|-----------------------------------------------------------|
A|-----------------------------------------------------------|
E|-----------------------------------------------------------|


Verse 1:
          Bm         D-A
Honey I'm home roamed
       G          Bm  D-A
you're holding my hand
G            Bm       D-A
Shit make a smoke gems
       G           Bm  D
Making love in the sand
       A(hold)
Well excuse me while I throw


Refrain 1:
Em        F#             G
up Take a second to interrupt
                               Em
I was right and that shit just sucks
        F#
I'll be blowin' the candles out
Lights on It's wrong but it's my


Chorus: Do also the intro keyboard
Bm          D
Makeout song
                        A            F#
We've been holdin' back too damn long
         Bm
Well the sweet talk's great
         D
But it's getting late
      G                 F#
And I wanna just get it on
           Bm          D
This is my makeout song
                      A     F#
Don't be getting your ego on
        Bm                      D
Cause I like your lips but this foreplay kiss
         G                F#
Has been going on way too long
Get with my makeout song


Interlude: Bm-D-A-G (x4)

Keyboard:
e|---7-5------------------|
B|-7-----8-7--------------|
G|----------------7-6-----|
D|--------------9-----9---| (x2)
A|----------------------9-|
E|------------------------|

Verse 2:
            Bm     D-A
Allergic to flowers
     G             Bm D-A
They wilt and they die
    G           Bm    D-A
And trip in the shower
  G             Bm D
Regardless that I'd
     A(hold)
Much rather you'd just hang


Refrain 2:
Em             F#              G
tough A little buddy it beats enough?
                      Em
Let's get animalistic rough
         F#                        G
We'll be rippin' the clothes right off
Backseat highspeed/I scream/high scream (couldn't tell, lol)


(Repeat Chorus)


Bridge:
G
  When you lay me down
D
  On your pillow now
F#                      Bm    A/C#-D
  Sprinkle roses on the sheets
I get the creeps
G
  You're finally touching me
D                       A
  And you realize I'm asleep
     F#
I'm asleep
Well excuse me while I throw


Refrain 3:
Em        F#/Bb          D
up Take a second to interrupt
                               Em
I was right and that shit just sucks
        F#/Bb               G
I'll be blowin' the candles out
Lights on It's wrong


(Repeat Chorus twice)
Tap to rate this tab
# A B C D E F G H I J K L M N O P Q R S T U V W X Y Z