Song name
# A B C D E F G H I J K L M N O P Q R S T U V W X Y Z

Sweetnam Skye - Rock And Roll Baby tab

Skye Sweetnam
Rock And Roll Baby
Submitted by: paramore_fans@yahoo.com

Tuning: Standard EADGBe

Key: F


Intro:
e|-------------|
B|-------------|
G|-5-5-5-------|
D|-5-5-5-5-5-5-| x8
A|-3-3-3-5-5-5-|
E|-------3-3-3-|


Verses:
e|--------------------------|
B|--------------------------|
G|--------------8-8-8-3-3-3-|
D|--3-3-3-3-3-3-8-8-8-3-3-3-| x2
A|--3-3-3-3-3-3-6-6-6-1-1-1-|
E|--1-1-1-1-1-1-------------|


Refrain:
e|-------------|-----------------|
B|-------------|-----------------|
G|-------5-5-5-|---5---5---5---5-|
D|-5-5-5-5-5-5-|-5-5-5-5-5-5-5-5-|
A|-5-5-5-3-3-3-|-5-3-5-3-5-3-5-3-|
E|-3-3-3-------|-3---3---3---3---|
       x3


Chorus:
e|--------------------------|
B|--------------------------|
G|--------------8-8-8-3-3-3-|
D|--3-3-3-3-3-3-8-8-8-3-3-3-| x4
A|--3-3-3-3-3-3-6-6-6-1-1-1-|
E|--1-1-1-1-1-1-------------|
Tap to rate this tab
# A B C D E F G H I J K L M N O P Q R S T U V W X Y Z