Song name
# A B C D E F G H I J K L M N O P Q R S T U V W X Y Z

Sweetnam Skye - Hypocrite tab

Skye Sweetnam
Hypocrite
Noise from the Basement
2004 Capitol Records
submitted by: canuck_inbred@yahoo.com

Chords used:
Eb-   x68886
Bb-   x13331
Cm-   x35543
Gm-   355333
Bb/D- x5333x
F-    133211

Intro:
e|--------------|
B|--------------|
G|-8-8-8-3--3-5-|
D|-8-8-8-3--3-5-|
A|-6-6-6-1--1-3-|
E|--------------|

Verses: same as tintro and (x4)

Chorus: (Strum and switch it fast)
e|----------------------------------------------------------|
B|----------------------------------------------------------|
G|--------7-7-7--8-8-8--5-5-5--3-3-3---------8-8-8-8-8-8-8--| (x2)
D|-5-5-5--8-8-8--8-8-8--5-5-5--3-3-3--3-3-3--8-8-8-8-8-8-8--|
A|-5-5-5--5-5-5--6-6-6--3-3-3--1-1-1--3-3-3--6-6-6-6-6-6-6--|
E|-3-3-3------------------------------1-1-1-----------------|


Post chorus: Bass
G|----------------------|
D|----------------------|
A|-6h8-6h8-6h8-6h8-6h8--|
E|----------------------|


Bridge: Ahh-ha-haa-haa
e|----------------------|
B|----------------------|
G|----------------------| (x3)
D|-5--5/10\8--8/15------|
A|-5--5/10\8--8/15------|
E|-3--3/-8\6--6/13------|


I will do what I want to (Hey!)
e|----------------|
B|----------------|
G|----------------| (x4)
D|-5-5-5-5-5-5-5--|
A|-5-5-5-5-5-5-5--|
E|-3-3-3-3-3-3-3--|


Bass Solo: at time 2:02 while you will hear a helicopter sound in the background 
effects.
G|-------------------------------|
D|-------------------------------| repeat till the song ends.
A|-----------1----------------3--|
E|-3-1-3-1-3---3--3-1-3-1-3-1----|


Lyrics:


Intro: Eb-Bb-Cm (x2)


Verse 1:
Eb         Bb    Cm
Bubble gum brainiac

Baby girl, ultra brat
Eb              Bb Cm
Angst Schmangst No thanks

Hope my record doesn't tank
Eb           Bb      Cm
Sailor moon, Rainbow brite

Anime, Avril lite
Eb        Bb      Cm
Pro tools all the way

Hey,hey,hey,hey!!


Chorus:
Gm          Bb/D     Eb   Cm
Dont try to label me hypocrite
      Bb     F         Eb
Cause I will do what I want to
Gm        Bb/D         Eb     Cm
Some will say that I'm counterfeit
    Bb     F         Eb
But I will be what I want to


Post chorus: Bass only be seen above


Verse 2:
Eb           Bb  Cm
Candy floss, antipop

Star search, lollipop
Eb           Bb    Cm
Manufactured skate punk

Wanna be, never was
Eb          Bb    Cm
Nerd, geek, super freak

I'm a movie of the week
Eb            Bb        Cm
Daddy's girl, teacher's pet

Yeah,Yeah,Yeah,Yeah!!


(Repeat Chorus)


Bridge:

Gm  Cm Bb  F
Ahh-ha-haa-haa (x3)

Eb

Gm
Don't try to label me hypocrite... (x2)
Gm
I will do what I want to... hey! (x4)


(Repeat Chorus)


Chorus 2:
Gm        Bb/D       Eb    Cm
Some will look at me and vomit
    Bb     F          Eb
But I will look how i want to
Gm        Bb/D        Eb      Cm
Some will hear me and not get it
    Bb     F          Eb
But I will say what I want to

Coda: (helicopter effect plus bass solo)

Do the bass solo above while playing this chord

Gm
Don't try to label me hypocrite... (x2)
Gm
I will do what I want to...hey!! (x8)
Tap to rate this tab
# A B C D E F G H I J K L M N O P Q R S T U V W X Y Z