Song name
# A B C D E F G H I J K L M N O P Q R S T U V W X Y Z

Sweetnam Skye - Ghosts tab

Skye Sweetnam
Ghosts feat. Tim Armstrong of Rancid
Sound Soldier
2007 EMI Records
Submitted by: paramore_fans@yahoo.com

Key: G

Tuning: Standard EADGBe

Chords used:
G -   320033
C -   x32010
Em -  022000
D -   xx0232
F#m - 244222
E -   022100


Chorus:
G           C
  I don't believe in
Em              D           G-C-Em-D
ghosts but I'm afraid of 'em
(Repeat)


Interlude 1: G-C-Em-D

Guitar 2:
e|-3---3---2-----3---3---3---3---|
B|---3---3---3-3---3---3---3---3-|
G|-------------------------------|
D|-------------------------------| x4
A|-------------------------------|
E|-------------------------------|

Guitar 3: Tim Armstrong
e|-----------------------|
B|-----------------------|
G|---7---7---7-----5---7-|
D|---7---7---7---5-5-2-7-|
A|---5---5---5---5-3-2-5-|
E|---------------3---0---|


Verse 1:
G             C
  Some wanna sleep
    Em         D
And some wanna rise
G                 C     Em      D
  Some wait their whole life to hide
G              C        Em       D
  I'm going go out like Bonnie & Clyde
            G       C
Cause I'm a wild one
      Em           D
and I don't give a damn, no
G          C          Em
  I made a bet with myself
          D
I'm gonna make it
G           C      Em              D
  Something that I want, I'm gonna take it
G       C    Em              D
  Small town mold, I'm gonna break it
G                C        Em      Dm
  And get out of here And make my dreams come true


Refrain:
Em
Na na na na na
C
Na na na na na
G              D
Na na na na na na


(Repeat Chorus)


Interlude 2: G-C-Em-D

Guitar 2:
e|-3---3---2-----3---3---3---3---|
B|---3---3---3-3---3---3---3---3-|
G|-------------------------------|
D|-------------------------------| x4
A|-------------------------------|
E|-------------------------------|

Guitar 3: Tim Armstrong
e|---------------------------------------------------------3-|
B|-----------------------0-3-3-3-3---------------------0-3---|
G|-0-0-0-0-0-0-0-0-0-2-3-----------0-0-0-0-0-0-0-0-0-2-------|
D|-----------------------------------------------------------|
A|-----------------------------------------------------------|
E|-----------------------------------------------------------|
then
e|-3--1--0---0---------------------------------------|
B|---------3----0--------------0---0---0---0---------|
G|-----------------2-0----0--3---3---3---3---2-0---0-|
D|---------------------0-------------------------0---|
A|---------------------------------------------------|
E|---------------------------------------------------|


Verse 2:
G           C           Em           D
  There are some things you're gonna miss
G         C             Em        D
  Growing up in a small town like this
G     C         Em           D
  Big city, big problems for fist
         G           C     Em         D
But it's me and you, boy, against the world now
G         C         Em           D          G
  I met a man named Hate I met a lady named Malice
C          Em         D          G
Met on the avenue And not in the palace
    C           Em      D       G       C
And everyone we meet is so damn Ruthless
   Em            D
So boy dont ever leave me


(Repeat  Refrain and Chorus)


Interlude 3: F#m--E--D--C-D


Bridge:
F#m
  Lost kids in a lost world living
E
No one's gonna back down, no one's gonna give in
D
  You think I'm dumb, no you just mistaken
C                      D
Can't be broke, and we can't be shaken


(Repeat Chorus twice and Interlude 2)
Tap to rate this tab
# A B C D E F G H I J K L M N O P Q R S T U V W X Y Z