Song name
# A B C D E F G H I J K L M N O P Q R S T U V W X Y Z

Sweetnam Skye - Fallen Through chords

Highlighted       Show chord diagrams
Skye Sweetnam
Fallen Through
Noise From The Basement
2004 Capitol Records
Submitted by: paramore_fans@yahoo.com

Key: Bb

Tuning: Standard EADGBe

Chords used:
Gm -  355333
Eb -  x68886
Bb -  x13331
F -   133211
Cm -  x35543
D -   xx0232
F/A - x032xx


Intro:
     Gm         Eb       Bb         F/A
e|---------|---------|---------|-----------|
B|-------3-|-------3-|-------3-|-----------|
G|-----3---|---0-----|-----3---|-----------|
D|---0-----|-1---1---|---3-----|-----------| x4
A|---------|---------|-1-------|-0--0--1-0-|
E|-3-------|---------|---------|-----------|


Verse 1:
Gm Eb  Bb        F/A      Gm
  I  do  what he says but I
   Eb  Bb        F/A    Gm
end  up  falling up the edge
            Eb
I don't know  what do you
Bb      F/A    Cm             Eb
  never see to end up friggin true
Gm     Eb  Bb     F/A       Gm
  seeps  in  underneath the door
     Eb  Bb     F/A       Gm
sinks  in  and stains the floor
            Eb
I don't know   what to feel
Bb         F/A            Cm
  takes so long for these wounds
   Eb            Cm              Eb
to heal, tell me it's not really real


Chorus:
Gm Eb  Bb      F
Fallen through why did I
Gm   Eb  Bb   F
fall for you, falling from
Gm            Eb
  all the lies, alibis
Bb         F           Eb
  that you said let me holding
   D
on the last breath


Interlude: Gm--F/A-- x2


Verse 2:
Gm    Eb     Bb    F/A      Gm
  Stop  stare  and watch me burn
    Eb   Bb        F/A     Gm
some--day  it will be your turn
          Eb            Bb
can't fool  me I can see  all
    F/A             Cm
the things that you don't
           Eb  Gm   Eb
want me to see,  you  threw
Bb   F/A    Gm        Eb
  my heart away that's  the
Bb      F/A    Gm
  price that I paid, I know
    Eb          Bb        F/A
it's  never fair  promise me
      Cm        Eb
you'd always be there
        Cm           Eb
but you never really cared


(Repeat Chorus)


Guitar Solo: Gm--Eb--Gm--Eb-Gm-F-

Guitar 2: x2
e|---------------------------------|
B|-------------------------------3-|
G|---------------------------------|
D|-------------3--------------3----|
A|---1---1---1------1---1---1------|
E|-3---3---3------3---3---3--------|

e|-----------------------------1-|
B|-------------3------------3----|
G|---3---3---3------3---3--------|
D|-1---1---1------1---1---1------|
A|-------------------------------|
E|-------------------------------|

e|---------------------------------|
B|-------------------------------3-|
G|---------------------------------|
D|-------------3--------------3----|
A|---1---1---1------1---1---1------|
E|-3---3---3------3---3---3--------|

e|----------------------------|
B|-------------3--------------|
G|---3---3---3----------------|
D|-1---1---1------5-5-5-3-3-3-|
A|----------------5-5-5-3-3-3-|
E|----------------3-3-3-1-1-1-|


Breakdown: Eb-- x4

Guitar 1:
e|--------------------------1-|
B|------3----3-------3---3----|
G|----3----3-------3---3------|
D|-1------------1-------------| x2
A|----------------------------|
E|----------------------------|

Guitar 2:
e|----10----10-------13-------13-------13-|
B|-11----11----11-11----11-11----11-11----|
G|----------------------------------------|
D|----------------------------------------|
A|----------------------------------------|
E|----------------------------------------|


(Repeat Chorus twice)


Outro: Gm--F/A- x4
Tap to rate this tab
 
# A B C D E F G H I J K L M N O P Q R S T U V W X Y Z