Song name
# A B C D E F G H I J K L M N O P Q R S T U V W X Y Z

Sweetnam Skye - Radio Free Roscoe tab

heyhey, im kensey :3 im 13 and yeah... Anyways, this song is copyright to the show radio 
roscoe, vocals skye sweetnam, blah blah blah. anyways. here are the tabs

/=Slide... Pretty much all you need to know

intro
Its all you ever hear...
|-----------------------------------------------------------------------------|
|-----------------------------------------------------------------------------|
|---------------------5-5--5/-----------10-10--10/-----2-2--2/-----10-10--10/-|
|---------------------5-5--5/-----------10-10--10/-----2-2--2/-----10-10--10/-|
|---------------------3-3--3/-----------8-8----8/------0-0--0/-----8--8---8/--|
|-----------------------------------------------------------------------------| x2

                       We change the rules around
|--------------------------|
|--------------------------|
|---5-5--5-----------------|
|---5-5--5---5-5--5----7-7-|
|---3-3--3---5-5--5----7-7-|
|------------3-3--3----5-5-| x2

                        Tune into the underground
|---------------------------|
|---------------------------|
|---------------------------|
|---7-7--7-----6-6--6---5-4-|
|---7-7--7-----6-6--6---5-4-|
|---5-5--5-----4-4--4---3-2-| x2

You said its too much...
|------------------------------------|
|------------------------------------|
|--------5-5-5-5--------5-5-5-5------|
|--------5-5-5-5--5-5---5-5-5-5--5-5-|
|--------3-3-3-3--5-5---3-3-3-3--5-5-|
|-----------------3-3------------3-3-|

         Are you listening.....
|---------------------------|
|---------------------------|
|---------------------------|
|---7-7--7-----6-6--6---5-4-|
|---7-7--7-----6-6--6---5-4-|
|---5-5--5-----4-4--4---3-2-| x2

   Your listening to radio free roscoe...
|----------|
|----------|
|--5/--17--|
|--5/--17--|
|--3/--15--|
|----------|

Email me at cunningklobe@yahoo.ca if you have any problems. Check out my other 
dangerous to know by hilary duff :D
Tap to rate this tab
# A B C D E F G H I J K L M N O P Q R S T U V W X Y Z