Song name
# A B C D E F G H I J K L M N O P Q R S T U V W X Y Z

Sweetnam Skye - Scary Love tab

Skye Sweetnam
Scary Love
Sound Soldier
2007 EMI Records
Submitted by: paramore_fans@yahoo.com

Key: D

Tuning: Standard EADGBe

Chords:
Bm -  x24432
D -   xx0232
A -   x02220
G -   320033
Gm -  355333
Em -  022000
Am -  x02210
C  -  x32010
DM7 - xx0222
Bb -  x13331


Intro: Bm--D--A--G (x2)

Keyboard: will enter at 2nd time
e|-2---------------2---0----0----------|
B|----3---3------3--------------3----3-|
G|------4-----2-----------2--------0---|
D|-------------------------------------|
A|-------------------------------------|
E|-------------------------------------|


Verse 1:
Bm
  What is love my love
D
Tell me do you know
   A
To me its dirt and blood and seed
       G
That's how my garden grows
Bm                            D
  What is this pain inside my veins
It's turned to frost
   A
Is there an operation, please
    G
And how much does it cost


Refrain:
Em     G        Em     Gm
  This love is a scary love


Guitar 2: while doing refrain
e|-0--2-3-------|
B|--------0---3-|
G|--------------|
D|--------------| x2
A|--------------|
E|--------------|


Chorus:
D          Am
  If i had one day left to live
  C
I lock the doors and windows
    D
And keep you in
D          Am
  If I had one day left to live
    C                          D
I'd wrap myself around you and breathe you in


Post Chorus:
D
  Scary love
DM7          G
  It's scary love


Verse 2:
Bm
  What is love my love
D
Tell me why it burns
     A
Like rage and fire inside of me
   G
It causes no concern
Bm
  I'm quite used to it
    D
The ashes on my hands
   A
At least I've felt the pain of love
     G
what no one understands


(Repeat Refrain and Chorus)


Bridge:
D      Am
  This love is a scary love
C      Bb                D
  Like birds in place of doves
D        Am
  Like a rain runs to the globe
       C
Like a train running over us
     Bb(hold)          D(hold)
Like being nailed to a cross


Guitar 2: While doing bridge
e|-14-------------------------|
B|-----15---------------------|
G|---------14--5---5--4--3--2-|
D|----------------------------| x2
A|----------------------------|
E|----------------------------|


(Repeat Chorus)


Outro: D--DM7-G--D
Tap to rate this tab
 
# A B C D E F G H I J K L M N O P Q R S T U V W X Y Z