Guitaretab - guitar tabs
Song name
# A B C D E F G H I J K L M N O P Q R S T U V W X Y Z

Swell Maps - Read About Seymour tab

SWELL MAPS - READ ABOUT SEYMOUR

e|-----------------------------------|
A|-----------------------------------|
D|-----------------------------------|
G|-----------------------------------|
B|--9-9-7-7-9-9-7-7-9-9-7-7-9-9-7-7--|
E|-7-7-5-5-7-7-5-5-7-7-5-5-7-7-5-5---|

e|------------------------------------------------------------------|
A|------------------------------------------------------------------|
D|------------------------------------------------------------------|
G|-x-9-x-9-7-7-7-7-x-9-x-9-7-7-7-7-x-9-x-9-7-7-7-7-x-9-x-9-7-7-7-7--|
B|-x-9-x-9-7-7-7-7-x-9-x-9-7-7-7-7-x-9-x-9-7-7-7-7-x-9-x-9-7-7-7-7--|
E|-x-7-x-7-5-5-5-5-x-7-x-7-5-5-5-5-x-7-x-7-5-5-5-5-x-7-x-7-5-5-5-5--|

e|------------------------------------------|
A|------------------------------------------|
D|------------------------------------------|
G|-4-4-4-4-5-5-5-5-5-5-4-4-4-4-5-5-5-5-5-5--|
B|-4-4-4-4-5-5-5-5-5-5-4-4-4-4-5-5-5-5-5-5--|
E|-0-2-0-2-3-3-3-3-3-3-0-2-0-2-3-3-3-3-3-3--|

e|------------------------------------------------------------------|
A|------------------------------------------------------------------|
D|------------------------------------------------------------------|
G|-x-9-x-9-7-7-7-7-x-9-x-9-7-7-7-7-x-9-x-9-7-7-7-7-x-9-x-9-7-7-7-7--|
B|-x-9-x-9-7-7-7-7-x-9-x-9-7-7-7-7-x-9-x-9-7-7-7-7-x-9-x-9-7-7-7-7--|
E|-x-7-x-7-5-5-5-5-x-7-x-7-5-5-5-5-x-7-x-7-5-5-5-5-x-7-x-7-5-5-5-5--|

e|------------------------------------------|
A|------------------------------------------|
D|------------------------------------------|
G|-4-4-4-4-5-5-5-5-5-5-4-4-4-4-5-5-5-5-5-5--|
B|-4-4-4-4-5-5-5-5-5-5-4-4-4-4-5-5-5-5-5-5--|
E|-0-2-0-2-3-3-3-3-3-3-0-2-0-2-3-3-3-3-3-3--|
[ Tab from: http://www.guitaretab.com/s/swell-maps/81555.html ]
e|--------------------------------------------------|
A|--------------------------------------------------|
D|--------------------------------------------------|
G|-12-12-12-12-10-10-10-10-12-12-12-12-10-10-10-10--|
B|-12-12-12-12-10-10-10-10-12-12-12-12-10-10-10-10--|
E|-10-10-10-10-8--8--8--8--10-10-10-10-8--8--8--8---|

e|--------------------------------------------------|
A|--------------------------------------------------|
D|--------------------------------------------------|
G|-12-12-12-12-10-10-10-10-12-12-12-12-10-10-10-10--|
B|-12-12-12-12-10-10-10-10-12-12-12-12-10-10-10-10--|
E|-10-10-10-10-8--8--8--8--10-10-10-10-8--8--8--8---|


e|--------------------|
A|--------------------|
D|--------------------|
G|--------------------|
B|--9-9-7-7-9-9-7-7---|
E|-7-7-5-5-7-7-5-5----|

e|------------------------------------------------------------------|
A|------------------------------------------------------------------|
D|------------------------------------------------------------------|
G|-x-9-x-9-7-7-7-7-x-9-x-9-7-7-7-7-x-9-x-9-7-7-7-7-x-9-x-9-7-7-7-7--|
B|-x-9-x-9-7-7-7-7-x-9-x-9-7-7-7-7-x-9-x-9-7-7-7-7-x-9-x-9-7-7-7-7--|
E|-x-7-x-7-5-5-5-5-x-7-x-7-5-5-5-5-x-7-x-7-5-5-5-5-x-7-x-7-5-5-5-5--|

e|------------------------------------------|
A|------------------------------------------|
D|------------------------------------------|
G|-4-4-4-4-5-5-5-5-5-5-4-4-4-4-5-5-5-5-5-5--|
B|-4-4-4-4-5-5-5-5-5-5-4-4-4-4-5-5-5-5-5-5--|
E|-0-2-0-2-3-3-3-3-3-3-0-2-0-2-3-3-3-3-3-3--|

e|--------------------------------------------------|
A|--------------------------------------------------|
D|--------------------------------------------------|
G|-12-12-12-12-10-10-10-10-12-12-12-12-10-10-10-10--|
B|-12-12-12-12-10-10-10-10-12-12-12-12-10-10-10-10--|
E|-10-10-10-10-8--8--8--8--10-10-10-10-8--8--8--8---|

e|----------------------------------------------------|
A|----------------------------------------------------|
D|----------------------------------------------------|
G|-12-12-12-12-10-10-10-10-12-12-12-12-10-10-10-10-12-|
B|-12-12-12-12-10-10-10-10-12-12-12-12-10-10-10-10-12-|
E|-10-10-10-10-8--8--8--8--10-10-10-10-8--8--8--8--10-|
Related for Read About Seymour tab