Song name
# A B C D E F G H I J K L M N O P Q R S T U V W X Y Z

Swell - Forget About Jesus tab

Forget About Jesus - Swell

Intro
-------------------------------------------------------------|
-3--3-3-3-3-----1--1-1-1-1-1---1--1-1-1-1-----1--1-1-1-1-----|    X 2
-0--0-0-0-0-----0--0-0-0-0-0---2--2-2-2-2-----2--2-2-2-2-----|
-0--0-0-0-0-----2--2-2-2-2-2---3--3-3-3-3-----2--2-2-2-2-----|
-2--2-2-2-2-----3--3-3-3-3-3---3--3-3-3-3-----0--0-0-0-0-----|
-3--3-3-3-3--------------------1--1-1-1-1--------------------|
                                 (fait un barré pour cet accord)

( quand la batterie rentre )
---------------------------------------------------------------|
---3--3--3--3-3-3-3----1--1--1--1--1---------------------------|  X  2
---0--0--0--0-0-0-0----2--2--2--2--2---------------------------|
---0--0--0--0-0-0-0----3--3--3--3--3---------------------------|
---2--2--2--2-2-2-2----3--3--3--3--3---------------------------|
---3--3--3--3-3-3-3----1--1--1--1--1---------------------------|

Quand la batterie s'arrète :
--------------------------------------------------------|
--3-3-3-3-3-3---1-1-1-1-1---1-1-1-1----1-1-1-1----------|
--0-0-0-0-0-0---0-0-0-0-0---2-2-2-2----2-2-2-2----------|
--0-0-0-0-0-0---2-2-2-2-2---3-3-3-3----2-2-2-2----------|     X2
--2-2-2-2-2-2---3-3-3-3-3---3-3-3-3----0-0-0-0----------|
--3-3-3-3-3-3---------------1-1-1-1---------------------|

Couplet ( le chant rentre ... " There she stands , There she sits.. " )
-----------------------------------------------------------------------|
-3-3-3-3-3-3---1-1-1-1-1----1-1-1-1-1---1-1-1-1------------------------|
-0-0-0-0-0-0---0-0-0-0-0----2-2-2-2-2---2-2-2-2-----------------   X 2-|
-0-0-0-0-0-0---2-2-2-2-2----3-3-3-3-3---2-2-2-2------------------------|
-2-2-2-2-2-2---3-3-3-3-3----3-3-3-3-3---0-0-0-0------------------------|
-3-3-3-3-3-3----------------1-1-1-1-1----------------------------------|


---------------------------------------------------------------|
---3--3--3--3-3-3-3----1--1--1--1--1---------------------------|  X  2
---0--0--0--0-0-0-0----2--2--2--2--2---------------------------|
---0--0--0--0-0-0-0----3--3--3--3--3---------------------------|
---2--2--2--2-2-2-2----3--3--3--3--3---------------------------|
---3--3--3--3-3-3-3----1--1--1--1--1---------------------------|

Quand la batterie s'arrète...
--------------------------------------------------------|
--3-3-3-3-3-3---1-1-1-1-1---1-1-1-1----1-1-1-1----------|
--0-0-0-0-0-0---0-0-0-0-0---2-2-2-2----2-2-2-2----------|
--0-0-0-0-0-0---2-2-2-2-2---3-3-3-3----2-2-2-2----------|     X2
--2-2-2-2-2-2---3-3-3-3-3---3-3-3-3----0-0-0-0----------|
--3-3-3-3-3-3---------------1-1-1-1---------------------|


Quand le chant reprend...

-----------------------------------------------------------------------|
-3-3-3-3-3-3---1-1-1-1-1----1-1-1-1-1---1-1-1-1------------------------|
-0-0-0-0-0-0---0-0-0-0-0----2-2-2-2-2---2-2-2-2-----------------   X 2-|
-0-0-0-0-0-0---2-2-2-2-2----3-3-3-3-3---2-2-2-2------------------------|
-2-2-2-2-2-2---3-3-3-3-3----3-3-3-3-3---0-0-0-0------------------------|
-3-3-3-3-3-3----------------1-1-1-1-1----------------------------------|


---------------------------------------------------------------|
---3--3--3--3-3-3-3----1--1--1--1--1---------------------------|  X  2
---0--0--0--0-0-0-0----2--2--2--2--2---------------------------|
---0--0--0--0-0-0-0----3--3--3--3--3---------------------------|
---2--2--2--2-2-2-2----3--3--3--3--3---------------------------|
---3--3--3--3-3-3-3----1--1--1--1--1---------------------------|

Fin  ( Outro )
--------------------------------------------------------------------------|
---3--3--3--3-3-3-3-3-3-3-------1---1--1--1--1-1-1------------------ X  3-|
---0--0--0--0-0-0-0-0-0-0-------2---2--2--2--2-2-2------------------------|
---0--0--0--0-0-0-0-0-0-0-------3---3--3--3--3-3-3------------------------|
---2--2--2--2-2-2-2-2-2-2-------3---3--3--3--3-3-3------------------------|
---3--3--3--3-3-3-3-3-3-3-------1---1--1--1--1-1-1------------------------|
Tap to rate this tab
 
# A B C D E F G H I J K L M N O P Q R S T U V W X Y Z