Song name
# A B C D E F G H I J K L M N O P Q R S T U V W X Y Z

Swell - Yes And No tab

Song : YES AND NO
Artist : SWELL
Album : SWELL (1991)
official website : www.swellsongs.com

Chords (can be played instead of guitar1): Gm, Dm

Played on keyboard, arranged for guitar. A beautiful instumental and psychedelic song...

Guitar1 :
-----------------------------|
---------11------10----------|
---------12------10----------|
-12--------------------------|
-----------------------------|
-----------------------------|play this from the begining to the end


Guitar2 fig.1 :
---------10-------------------------------------------|
-----11------10---------------------------------------|
-----------------12-----------------------------------|
-12------------------12.-12.-12.-12-------------------|
-------------------------------------------10--12--13-|
------------------------------------------------------|
play fig.1 two times before fig.2

Guitar2 fig.2 :
----------------------------------------------------------|
-----------------------10---------------------------------|
---------12----------------12-----------------------------|
---10-12-----------------------12--10------12--12---------|
---------------------------------------------------10--10-|
----------------------------------------------------------|
Tap to rate this tab
 
# A B C D E F G H I J K L M N O P Q R S T U V W X Y Z