Song name
# A B C D E F G H I J K L M N O P Q R S T U V W X Y Z

Swell - A Town tab

Song : A TOWN
Artist : SWELL
Album : SWELL (1990/1991)
Official website : www.swellsongs.com

whole song :
-|-------------------------|-
-|-------------------------|-
-|-------3--3--------------|-
-|-3--3--1--1--3--3--------|-
-|-1--1--------1--1--3--3--|-
-|-------------------1--1--|-

Here is a town
For you to walk your walls in
For you to plead disinterest
Here is a town
For you to be forgotten
For you to be passed over
Maybe I need to know
Tonight
Here…is that town

Harmonica :
-|--------------------8-------|-
-|-8--------9-----------------|-
-|----------------------------|-
-|----------------------------|-
-|----------------------------|-
-|----------------------------|-
Tap to rate this tab
 
# A B C D E F G H I J K L M N O P Q R S T U V W X Y Z