Song name
# A B C D E F G H I J K L M N O P Q R S T U V W X Y Z

Swell - Sick Half Of A Church tab

Song : SICK HALF OF A CHURCH
Artist : SWELL
Album : SWELL (1990/1991)
Official website : www.swellsongs.com

Intro bass :
-----------------------------|
-0-0-----0---0-0---0---0-0-0-|
-----------------------------|
-----------------------------| x8

main part :
---------------------------------------------------------------------|
---------------------------------------------------------------------|
-2---2---2---2-2-2-3---3---3-3-3---2---2---2---2-2-2-3---3---3-3-3-2-|
-0---0---0---0-0-0-0---0---0-0-0---0---0---0---0-0-0-0---0---0-0-0-0-|
---------------------------------------------------------------------|
---------------------------------------------------------------------|
|
---------------------------------------------------------------------|
-0-0-----0---0-0---3^--------------0-0-----0---0-0---3^--------------|
---------------------------------------------------------------------|
---------------------------------------------------------------------| x4


---------------------------------------------------------------------|
---------------------------------------------------------------------|
-2---2---2---2-2-2-3---3---3-3-3---2---2---2---2-2-2-3---3---3-3-3-2-|
-0---0---0---0-0-0-0---0---0-0-0---0---0---0---0-0-0-0---0---0-0-0-0-|
---------------------------------------------------------------------|
---------------------------------------------------------------------|
|
-5---------------------------------5---------------------------------|
---------------------------------------------------------------------|
---------------------------------------------------------------------|
---------------------------------------------------------------------|
---------------------------------------------------------------------|
---------------------------------------------------------------------|
|
---------------------------------------------------------------------|
-0-0-----0---0-8---8-----3-2-------0-0-----0---0-8---8-----3-2-------|
---------------------------------------------------------------------|
---------------------------------------------------------------------| x2


chorus part :
-(3)-3-3---3-3-3---5-5-5---5-5-5---6-6-6---6-6-6---3-3-3---3-3-3---|
-(5)-5-5---5-5-5---3-3-3---3-3-3---5-5-5---5-5-5---5-5-5---5-5-5---|
-(2)-2-2---2-2-2---2-2-2---2-2-2---5-5-5---5-5-5---4-4-4---4-4-4---|
-------------------------------------------------------------------|
-------------------------------------------------------------------|
-------------------------------------------------------------------|
|
---------------------2-----2/3-----------------------3-------2-----|
-(2)-0-------------0-----------0---1-----------------------------3-|
-------------------------------------------------------------------|
-------------------------------------------------------------------|

main part

chorus part

ending part
---------------------------------------------------------------------|
-3---------------------------------3---------------------------------|
-2---------------------------------2---------------------------------|
-0---------------------------------0---------------------------------|
---------------------------------------------------------------------|
---------------------------------------------------------------------|
|
---------------------------------------------------------------------|
-5-------------------------------------------------------------------|
---------------------------------------------------------------------|
---------------------------------------------------------------------|
---------------------------------------------------------------------|
---------------------------------------------------------------------| x2


---------------------------------------------------------------------|
-3---------------------------------3---------------------------------|
-2---------------------------------2---------------------------------|
-0---------------------------------0---------------------------------|
---------------------------------------------------------------------|
---------------------------------------------------------------------|
|
-9------------9---10---------------9-9-9-9-12-12-10------------------|
---------------------------------------------------------------------|
---------------------------------------------------------------------|
---------------------------------------------------------------------|
---------------------------------------------------------------------|
---------------------------------------------------------------------| x2


---------------------------------------------------------------------|
-3---------------------------------3---------------------------------|
-2---------------------------------2---------------------------------|
-0---------------------------------0---------------------------------|
---------------------------------------------------------------------|
---------------------------------------------------------------------|
|
-9-------------------------------------------------------------------|
---------------------------------------------------------------5--/--|
---------------------------------------------------------------------|
---------------------------------------------------------------------|
---------------------------------------------------------------------|
---------------------------------------------------------------------|


---------------------------------------------------------------------|
-3---------------------------------3---------------------------------|
-2---------------------------------2---------------------------------|
-0---------------------------------0---------------------------------|
---------------------------------------------------------------------|
---------------------------------------------------------------------|
|
---------------------------------------------------------------------|
-7---------------------------------5---------------------------------|
---------------------------------------------------------------------|
---------------------------------------------------------------------|
---------------------------------------------------------------------|
---------------------------------------------------------------------|

chorus part (guitar)
Tap to rate this tab
# A B C D E F G H I J K L M N O P Q R S T U V W X Y Z