Song name
# A B C D E F G H I J K L M N O P Q R S T U V W X Y Z

Swell - Oh My My tab

Song : OH MY MY
Artist : SWELL
Album : FOR ALL THE BEAUTIFUL PEOPLE (1998)
Official website : www.swellsongs.com

standard tuning

Intro and Verse
-----------------------------------------------------------------|
-----------------------------------------------------------------|
---3-----3-----3---2-----2---------3-----3-----3---3-----3-----0-|
-----0-----0---------0-----0---------0-----0---------0-----0-----|
-----------------------------------------------------------------|
-3-----3-----3---3-----3-----3---1-----1-----1---0-----0-----0---|

Part before chorus
---1-----1-----1---1-----1-----1---1-----1-----1---1-----1-----1-|
-----0-----0---------0-----0---------1-----1---------1-----1-----|
-----------------------------------------------------------------|
-------------0---------------0---------------3---------------0---|
-------2---------------2---------------3---------------3---------|
-3---------------3---------------1---------------1---------------|

Chorus
---2-----2-----2------------------|
-----0-----0-------3-----3-----3--|
---------------------0-----0------|
-2-----2-----2--------------------|
-----------------3-----3-----3----|
----------------------------------|

To end the chorus
----------------------------------|
---3-----3-----3---3-----3-----3--|
-----0-----0---------0-----0------|
-------------0---------------0----|
-------2---------------2----------|
-3---------------3----------------|
Tap to rate this tab
 
# A B C D E F G H I J K L M N O P Q R S T U V W X Y Z