Song name
# A B C D E F G H I J K L M N O P Q R S T U V W X Y Z

Swell - Turtle Song tab

Help us improve GuitareTab! Take a short survey!
Song :TURTLE SONG
Artist : SWELL
Album : …WELL ?
Official website : www.swellsongs.com

intro(x4) and verses :
gtr1 :
-5---5-------5---5---5-5-|
-5---5-------6---6---6-5-|
-5---5-------5---5---5-5-|
-------------------------|
-------------------------|
-------------------------|
gtr2 :
-------------------------|
-------------------------|
-4---2-4-4-2-4-4-2-4-4-2-|
-------------------------|
-------------------------|
-------------------------|

What could I do, what could I do to change your mind ?
What could I do, what could I do to change my mind ?
…a beautyful, beautyful, beautyful, beautyful…

Chorus :
gtr1 :
------------------------------|
------------------------------|
-11---11---x-x-12-12-12-14----|
------------------------------|
-9----9----x-x-10-10-10-12----|
------------------------------|
day

gtr1 :
------------------------------|
------------------------------|
-11---11---x-x-12-12-12-13----|
------------------------------|
-9----9----x-x-10-10-10-11----|
------------------------------|x3
gtr2 :
third         ---------------------|
time,         ---------------------|
play          ---------------------|
this at       ---------------------|
the end       -3--2--3--2--3--2----|
              ---------------------|
not a bird in the sky…

verse :
What would it take, what would it take to change your mind ?
What will it take, what will it take to change my mind ?
…a beautyful, beautyful, beautyful, beautyful…

gtr1 :
------------------------------|
------------------------------|
-11---11---x-x-12-12-12-13----|
------------------------------|
-9----9----x-x-10-10-10-11----|
------------------------------|x12
day

…like a cloud in the sky

fourth time
gtr2 :
---------------------------------------------------------|
---------------------------------------------------------|
---------------------------------------------------------|
---------------------------------------------------------|
-3-2-3-2-3-2-3/5-------5---3---2---3---2---0---0/2-0-----|
---------------------------------------------------------|

gtr2 :
---------------------------------------------------------|
---------------------------------------------------------|
---------------------------------------------------------|
---------------------------------------------------------|
-0-2-3/5-------5---3---2---3---2---0---0/2-0-------------|
---------------------------------------------------------|

(won’t you listen to my sight, fortune might take you away(?))
(won’t you listen to my sight, fortune might take you away(?))
…like a cloud in the sky

then:
gtr1 :
-4--------------|
-3--------------|
-4--------------|
----------------|
----------------|
----------------|

ends with acoustic guitar :
Bm, G…

Bm
Related for Turtle Song tab