Song name
# A B C D E F G H I J K L M N O P Q R S T U V W X Y Z

Swelo - Not Like We Used To chords

Highlighted       Show chord diagrams
These are the chords played in the Not Like We Used To by Swelo

         G           Em      C     D
Oh we're not like we used to be, yeah
         G           Em      C    D
No we're not like we used to be, No
           G            Em
You've got all your new lovers
         C          D
I've got all my new friends
         G           Em      C
No we're not like we used to be

         G           Em      C     D
No we're not like we used to be, yeah
         G           Em      C    D
No we're not like we used to be, oh
         G             Em
I've got all these new lovers
           C            D
You've got all your new friends
         G           Em      C   D
No we're not like we used to be

G   G/F# Em
Take me back
         C
To those days
G   G/F# Em
Take me back
         C
To those days
G   G/F# Em
Take me back
         C     D
To those days

          G           Em      C     D
But we're not like we used to be, yeah
         G           Em      C    D
No we're not like we used to be, No
         G             Em
We've got all these new lovers
           C            D
We've got all all new friends
         G           Em      C   D
No we're not like we used to be

         G           Em      C   D
No we're not like we used to be
         G           Em      C   D
No we're not like we used to be
         G             Em
We've got all these new lovers
           C            D
We've got all these new friends
         G              Em      C
Can't go back to how it used to be


Melody tabbed out(listen to get the rhythm):

-----------0-----------------------------0----------------------|
-----0---3---3--0------0---------0----3-----3---0-------0-------|
-0-2--------------2p0----2---0-2-------------------2p0----2-----|
----------------------------------------------------------------|
----------------------------------------------------------------|
----------------------------------------------------------------|

-----------0-3-0---------------------------0--------------------|
-----0---3---------0---------0---------0-3---3--0---------------|
-0-2------------------2-0--0---2---0-2------------0-------------|
----------------------------------------------------------------|
----------------------------------------------------------------|
----------------------------------------------------------------|
Tap to rate this tab
# A B C D E F G H I J K L M N O P Q R S T U V W X Y Z