Song name
# A B C D E F G H I J K L M N O P Q R S T U V W X Y Z

Swim Deep - Orange County tab

Intro/Chorus

|---------------------------------|----------------------------------|
|---------------------------------|----------------------------------|
|------------7---9-7--------------|------------7---9-7---------------|
|------7--9----9-----9-7-7-9-7----|------7--9----9-----9-7-7-9-7-----|
|10-10--10-10---------------------|10-10--10-10----------------------|
|---------------------------------|----------------------------------|

Verse

|---------------------------------|
|-15-17---------------------------|
|---------------------------------|     x4
|---------------------------------|
|---------------------------------|
|---------------------------------|

|---------------------------------|
|1515151515151515-1717171717171717|
|---------------------------------|
|---------------------------------|     x4
|---------------------------------|
|---------------------------------|

Pre Chorus

|---------------------------------|
|---------------------------------|
|---------------------------------|     
|12-14-12-14-1212-14-121212-14----|     x2
|---------------------------------|
|---------------------------------|

Intro
Verse
Pre Chorus
Chorus
Verse
Pre Chorus
Chorus 
Verse



http://www.youtube.com/watch?v=UHVygW_Ac0c
Tap to rate this tab
# A B C D E F G H I J K L M N O P Q R S T U V W X Y Z