Song name
# A B C D E F G H I J K L M N O P Q R S T U V W X Y Z

Swim Deep - Beach Justice tab

-------------------------------------------------------------------------------
                             Beach Justice - Swim Deep
-------------------------------------------------------------------------------
Tabbed by: hales_yeah
E-mail:

Tuning: Standard

I kinda tabbed out the acoustic version but really simply. Also I've tabbed out the 
strumming pattern verrrry badly so yeah just play around with it and tell me if something 
sounds odd and I'll switch it.

<3

Intro

e|---------------------------------------------------------------------------|
B|---------------------------------------------------------------------------|
G|--6---6---6-6-6---6---6---6-6-6-10---10---10-10-10-11---11---11-11-11------|
D|--7---7---7-7-7---7---7---7-7-7-11---11---11-11-11-12---12---12-12-12------|
A|--7---7---7-7-7---7---7---7-7-7-11---11---11-11-11-12---12---12-12-12------|
E|--5---5---5-5-5---5---5---5-5-5-9----9----9--9--9--10---10---10-10-10------|

Verse

e|---------------------------------------------------------------------------|
B|---------------------------------------------------------------------------|
G|--6---6---6-6-6-9---9---9-9-9-11---11---11-11-11---11---11---7-7-7-7-------|
D|--7---7---7-7-7-9---9---9-9-9-11---11---11-11-11---11---11---7-7-7-7-------|
A|--7---7---7-7-7-7---7---7-7-7-9----9----9--9--9----9----9----5-5-5-5-------|
E|--5---5---5-5-5------------------------------------------------------------|

"When you're really that happy..."

e|---------------------------------------------------------------------------|
B|---------------------------------------------------------------------------|
G|--9---------------7--------------9--------------7--------------------------|
D|--9---------------7--------------9--------------7--------------------------|
A|--7---------------5--------------7--------------5--------------------------|
E|---------------------------------------------------------------------------|


Chorus

"She gets up..."

e|---------------------------------------------------------------------------|
B|---------------------------------------------------------------------------|
G|--6---6---6-6-6---6---6---6-6-6-10---10---10-10-10-11---11---11-11-11------|
D|--7---7---7-7-7---7---7---7-7-7-11---11---11-11-11-12---12---12-12-12------|
A|--7---7---7-7-7---7---7---7-7-7-11---11---11-11-11-12---12---12-12-12------|
E|--5---5---5-5-5---5---5---5-5-5-9----9----9--9--9--10---10---10-10-10------|




************************************

| /   slide up
| \   slide down
| h   hammer-on
| p   pull-off
| ~   vibrato
| +   harmonic
| x   Mute note
| b   Bend
| pb  Pre-bend
| br  Bend release
| pbr Pre-bend release
| brb Bend release bend

************************************
Tap to rate this tab
# A B C D E F G H I J K L M N O P Q R S T U V W X Y Z