Song name
# A B C D E F G H I J K L M N O P Q R S T U V W X Y Z

Swingfly - Somethings Got Me Started tab

Something’s got me started
Swingfly

0:00
-7-----7---x---7---7-------5-----5---x---5---5-----10---10---10---10-----7----7---x---7---7
-7-----7---x---7---7-------5-----5---x---5---5-----10---10---10---10-----7----7---x---7---7
-8-----8---x---8---8-------6-----6---x---6---6-----11---11---11---11-----8----8---x---8---8  X4
-9-----9---x---9---9-------7-----7---x---7---7-----12---12---12---12-----9----9---x---9---9
-9-----9---x---9---9-------7-----7---x---7---7-----12---12---12---12-----9----9---x---9---9
-7-----7---x---7---7-------5-----5---x---5---5-----10---10---10---10-----7----7---x---7---7

0:21
-7---7-
-7---7-
-8---8-   X4
-9---9-
-9---9-
-7---7-

0:42
-7-----7---x---7---7-------5-----5---x---5---5-----10---10---10---10-----7----7---x---7---7
-7-----7---x---7---7-------5-----5---x---5---5-----10---10---10---10-----7----7---x---7---7
-8-----8---x---8---8-------6-----6---x---6---6-----11---11---11---11-----8----8---x---8---8  X4
-9-----9---x---9---9-------7-----7---x---7---7-----12---12---12---12-----9----9---x---9---9
-9-----9---x---9---9-------7-----7---x---7---7-----12---12---12---12-----9----9---x---9---9
-7-----7---x---7---7-------5-----5---x---5---5-----10---10---10---10-----7----7---x---7---7

1:03
-7---7-
-7---7-
-8---8-  X4
-9---9-
-9---9-
-7---7-

1:23
-7-----7---x---7---7-------5-----5---x---5---5-----10---10---10---10-----7----7---x---7---7
-7-----7---x---7---7-------5-----5---x---5---5-----10---10---10---10-----7----7---x---7---7
-8-----8---x---8---8-------6-----6---x---6---6-----11---11---11---11-----8----8---x---8---8  X5
-9-----9---x---9---9-------7-----7---x---7---7-----12---12---12---12-----9----9---x---9---9
-9-----9---x---9---9-------7-----7---x---7---7-----12---12---12---12-----9----9---x---9---9
-7-----7---x---7---7-------5-----5---x---5---5-----10---10---10---10-----7----7---x---7---7

1:49
-7-----7---x---7---7-------5-----5---x---5---5-----10---10---10---10
-7-----7---x---7---7-------5-----5---x---5---5-----10---10---10---10
-8-----8---x---8---8-------6-----6---x---6---6-----11---11---11---11   
-9-----9---x---9---9-------7-----7---x---7---7-----12---12---12---12
-9-----9---x---9---9-------7-----7---x---7---7-----12---12---12---12
-7-----7---x---7---7-------5-----5---x---5---5-----10---10---10---10

1:54
-7-----7---x---7---7-------5-----5---x---5---5-----10---10---10---10-----7----7---x---7---7
-7-----7---x---7---7-------5-----5---x---5---5-----10---10---10---10-----7----7---x---7---7
-8-----8---x---8---8-------6-----6---x---6---6-----11---11---11---11-----8----8---x---8---8  X7
-9-----9---x---9---9-------7-----7---x---7---7-----12---12---12---12-----9----9---x---9---9
-9-----9---x---9---9-------7-----7---x---7---7-----12---12---12---12-----9----9---x---9---9
-7-----7---x---7---7-------5-----5---x---5---5-----10---10---10---10-----7----7---x---7---7

2:31
-7-----7---x---7---7-------5-----5---x---5---5
-7-----7---x---7---7-------5-----5---x---5---5
-8-----8---x---8---8-------6-----6---x---6---6
-9-----9---x---9---9-------7-----7---x---7---7
-9-----9---x---9---9-------7-----7---x---7---7
-7-----7---x---7---7-------5-----5---x---5---5

www.doloresrecordings.com/swingfly.HTM
Tap to rate this tab
# A B C D E F G H I J K L M N O P Q R S T U V W X Y Z