Swingin Neckbreakers - No Costume No Candy tab

no costume no candy


swingin' neckbreakers


TRANSCRIBED BY RUDY GUZMAN


guzman_84@hotmail.com




                                               
Eb|--------------------------------------------5-5---5-------|
Bb|--------------------------------------------5-5---5-------|
Gb|--------------------------------------------6-6---6-------|
Db|-4-4---4-7-4--4-4---4-7-4--7-7---7-7--7-7-7-----7----7-7--|
Ab|-4-4---4-7-4--4-4---4-7-4--7-7-x-7-7--7-7-7-----7----7-7--|
Eb|-2-2-0-2-5-2--2-2-0-2-5-2--5-5-x-5-5--5-5-5-----5----5-5--|

Eb|-------------------------------------------5-5-------|
Bb|-----------------------------------5-5-5---5-5-------|
Gb|-----------------------------------6-6-6---6-6-------|
Db|-4-4---4-7-4--4-4---4-7-4--7-7---7-7-7-7-7-7-7-7-7-7-|
Ab|-4-4---4-7-4--4-4---4-7-4--7-7-x-7-7-7-7-7-7-7-7-7-7-|
Eb|-2-2-0-2-5-2--2-2-0-2-5-2--5-5-x-5-5-5-5-5-5-5-5-5-5-|

   verse
Eb|-------------------------------------------5-5-------|
Bb|-----------------------------------5-5-5---5-5-------|
Gb|-----------------------------------6-6-6---6-6-------|
Db|-4-4---4-7-4--4-4---4-7-4--7-7---7-7-7-7-7-7-7-7-7-7-|
Ab|-4-4---4-7-4--4-4---4-7-4--7-7-x-7-7-7-7-7-7-7-7-7-7-|
Eb|-2-2-0-2-5-2--2-2-0-2-5-2--5-5-x-5-5-5-5-5-5-5-5-5-5-|

Eb|----------------------------------------------------|
Bb|-3-----6-----8-----10-10-10-10-10-10-10-10-10-10-10-|
Gb|-3-----6-----8-----10-10-10-10-10-10-10-10-10-10-10-|
Db|-3-----6-----8-----10-10-10-10-10-10-10-10-10-10-10-|
Ab|-1-----4-----6-----8--8--8--8--8--8--8--8--8--8--8--|
Eb|----------------------------------------------------|


Eb|--------------------------------------------------------------------|
Bb|-------------------------------------------------------------8---6--|
Gb|------------------------6-8-6--4-4---4-7-9\7-----------------8---6--|
Db|-4-4---4-7-9\7--4-4---4-7-9\7--4-4---4-7-9\7--4-4---4-7-9\7--8---6--|
Ab|-4-4---4-7-9\7--4-4---4-7-9\7--2-2-0-2-5-7\5--4-4---4-7-9\7--6---4--|
Eb|-2-2-0-2-5-7\5--2-2-0-2-5-7\5-----------------2-2-0-2-5-7\5---------|


Eb|-------------------------------------|
Bb|-------------------------------------|
Gb|-4-4---4-7-7-9\7-9-9---4-4-7-7-9\7---|
Db|-4-4---4-7-7-9\7-9-9---4-4-7-7-9\7---|
Ab|-2-2-0-2-5-5-7\5-7-7-0-2-2-5-5-7\5---|
Eb|-----------------------------------0-|


Eb|--------------------------------------------5-5---5-------|
Bb|--------------------------------------------5-5---5-------|
Gb|--------------------------------------------6-6---6-------|
Db|-4-4---4-7-4--4-4---4-7-4--7-7---7-7--7-7-7-----7----7-7--|
Ab|-4-4---4-7-4--4-4---4-7-4--7-7-x-7-7--7-7-7-----7----7-7--|
Eb|-2-2-0-2-5-2--2-2-0-2-5-2--5-5-x-5-5--5-5-5-----5----5-5--|

Eb|-------------------------------------------5-5-------|
Bb|-----------------------------------5-5-5---5-5-------|
Gb|-----------------------------------6-6-6---6-6-------|
Db|-4-4---4-7-4--4-4---4-7-4--7-7---7-7-7-7-7-7-7-7-7-7-|
Ab|-4-4---4-7-4--4-4---4-7-4--7-7-x-7-7-7-7-7-7-7-7-7-7-|
Eb|-2-2-0-2-5-2--2-2-0-2-5-2--5-5-x-5-5-5-5-5-5-5-5-5-5-|

   verse
Eb|-------------------------------------------5-5-------|
Bb|-----------------------------------5-5-5---5-5-------|
Gb|-----------------------------------6-6-6---6-6-------|
Db|-4-4---4-7-4--4-4---4-7-4--7-7---7-7-7-7-7-7-7-7-7-7-|
Ab|-4-4---4-7-4--4-4---4-7-4--7-7-x-7-7-7-7-7-7-7-7-7-7-|
Eb|-2-2-0-2-5-2--2-2-0-2-5-2--5-5-x-5-5-5-5-5-5-5-5-5-5-|

Eb|----------------------------------------------------|
Bb|-3-----6-----8-----10-10-10-10-10-10-10-10-10-10-10-|
Gb|-3-----6-----8-----10-10-10-10-10-10-10-10-10-10-10-|
Db|-3-----6-----8-----10-10-10-10-10-10-10-10-10-10-10-|
Ab|-1-----4-----6-----8--8--8--8--8--8--8--8--8--8--8--|
Eb|----------------------------------------------------|


Eb|--------------------------------------------------------------------|
Bb|-------------------------------------------------------------8---6--|
Gb|------------------------6-8-6--4-4---4-7-9\7-----------------8---6--|
Db|-4-4---4-7-9\7--4-4---4-7-9\7--4-4---4-7-9\7--4-4---4-7-9\7--8---6--|
Ab|-4-4---4-7-9\7--4-4---4-7-9\7--2-2-0-2-5-7\5--4-4---4-7-9\7--6---4--|
Eb|-2-2-0-2-5-7\5--2-2-0-2-5-7\5-----------------2-2-0-2-5-7\5---------|


Eb|-------------------------------------|
Bb|-------------------------------------|
Gb|-4-4---4-7-7-9\7-9-9---4-4-7-7-9\7---|
Db|-4-4---4-7-7-9\7-9-9---4-4-7-7-9\7---|
Ab|-2-2-0-2-5-5-7\5-7-7-0-2-2-5-5-7\5---|
Eb|-----------------------------------0-|


   solo
Eb|----------------------------------------------------------------------|
Bb|-12b-12b-12b-12b-10--------12--------------------------15-------------|
Gb|-12b-12b-12b-12b-10--12h14----14-12----12b----12-14-15----14-12-14-12-|
Db|------------------------------------14-----14-------------------------|
Ab|----------------------------------------------------------------------|
Eb|----------------------------------------------------------------------|


Eb|-----------------------------------------------------------------------|
Bb|-15b-15b-----------14-12----14bf------------------------12----12-------|
Gb|-14b-14b--14p12----14-12----14bf--14p12----12-14--------12----12-14-12-|
Db|----------------14-------14-------------14-------14~~~~----14----------|
Ab|-----------------------------------------------------------------------|
Eb|-----------------------------------------------------------------------|

Eb|-----12---------------------------------------|
Bb|-15b----15p12-------12-14-12-14b-14----14-14b-|
Gb|--------------14p12-12-14-12-14b-14-12-14-14b-|
Db|----------------------------------------------|
Ab|----------------------------------------------|
Eb|----------------------------------------------|


   verse
Eb|-------------------------------------------5-5-------|
Bb|-----------------------------------5-5-5---5-5-------|
Gb|-----------------------------------6-6-6---6-6-------|
Db|-4-4---4-7-4--4-4---4-7-4--7-7---7-7-7-7-7-7-7-7-7-7-|
Ab|-4-4---4-7-4--4-4---4-7-4--7-7-x-7-7-7-7-7-7-7-7-7-7-|
Eb|-2-2-0-2-5-2--2-2-0-2-5-2--5-5-x-5-5-5-5-5-5-5-5-5-5-|

Eb|----------------------------------------------------|
Bb|-3-----6-----8-----10-10-10-10-10-10-10-10-10-10-10-|
Gb|-3-----6-----8-----10-10-10-10-10-10-10-10-10-10-10-|
Db|-3-----6-----8-----10-10-10-10-10-10-10-10-10-10-10-|
Ab|-1-----4-----6-----8--8--8--8--8--8--8--8--8--8--8--|
Eb|----------------------------------------------------|


Eb|--------------------------------------------------------------------|
Bb|-------------------------------------------------------------8---6--|
Gb|------------------------6-8-6--4-4---4-7-9\7-----------------8---6--|
Db|-4-4---4-7-9\7--4-4---4-7-9\7--4-4---4-7-9\7--4-4---4-7-9\7--8---6--|
Ab|-4-4---4-7-9\7--4-4---4-7-9\7--2-2-0-2-5-7\5--4-4---4-7-9\7--6---4--|
Eb|-2-2-0-2-5-7\5--2-2-0-2-5-7\5-----------------2-2-0-2-5-7\5---------|


Eb|-------------------------------------|
Bb|-------------------------------------|
Gb|-4-4---4-7-7-9\7-9-9---4-4-7-7-9\7---|
Db|-4-4---4-7-7-9\7-9-9---4-4-7-7-9\7---|
Ab|-2-2-0-2-5-5-7\5-7-7-0-2-2-5-5-7\5---|
Eb|-----------------------------------0-|

Eb|--------------------------------------------------------------------|
Bb|-------------------------------------------------------------8---6--|
Gb|------------------------6-8-6--4-4---4-7-9\7-----------------8---6--|
Db|-4-4---4-7-9\7--4-4---4-7-9\7--4-4---4-7-9\7--4-4---4-7-9\7--8---6--|
Ab|-4-4---4-7-9\7--4-4---4-7-9\7--2-2-0-2-5-7\5--4-4---4-7-9\7--6---4--|
Eb|-2-2-0-2-5-7\5--2-2-0-2-5-7\5-----------------2-2-0-2-5-7\5---------|

Eb|-------------------------------------|
Bb|-------------------------------------|
Gb|-4-4---4-7-7-9\7-9-9---4-4-7-7-9\7---|
Db|-4-4---4-7-7-9\7-9-9---4-4-7-7-9\7---|
Ab|-2-2-0-2-5-5-7\5-7-7-0-2-2-5-5-7\5---|
Eb|-----------------------------------0-|

                   x9
Eb|-----------------|
Bb|-----------------|
Gb|-----------------|
Db|-4-4---4-7-7-9\7-|
Ab|-4-4---4-7-7-9\7-|
Eb|-2-2-0-2-5-5-7\5-|




http://swinginneckbreakers.com/                                                        website

http://www.myspace.com/127205221                                                       myspace

http://www.cduniverse.com/search/xx/music/artist/Swingin%27+Neckbreakers/a/albums.htm  discography



hillo son mex

29/07/11
Tap to rate this tab
 
# A B C D E F G H I J K L M N O P Q R S T U V W X Y Z