Song name
# A B C D E F G H I J K L M N O P Q R S T U V W X Y Z

Swingin Utters - Pills And Smoke tab

Song: Pills and Smoke
Artist: Swingin' Utters
Album: Swingin' Utters
Tabbed by: A6StringWorld

This is my first tab, my band covers this song and I couldn't find it on this site so I 
to tab out what I play. Let me know what you think!

Intro

e|----------------------------------------------|
B|----------------------------------------------|
G|----------------10-------12-10----------------|
D|-10-10-10-10-10-10-10-10-12-10-10-10-10-10-10-| x2
A|-10-10-10-10-10-8--10-10-10-8--10-10-10-10-10-|
E|-8--8--8--8--8-----8--8--------8--8--8--8--8--|

Verse

e|---------------------------------------------------|
B|---------------------------------------------------|
G|-------------10-10--------------------12-10--------|
D|-10-10-10-10-10-10-10-10--10-10-10-10-12-10-10-10--| Each Verse this is
A|-10-10-10-10-8--8--10-10--10-10-10-10-10-8--10-10--| played two times,
E|-8--8--8--8--------8--8---8--8--8--8--------8--8---| only PM the first
   PM -------               PM-----------------------|                        time.

Chorus (very fast)

e|------------------------------------------|
B|------------------------------------------|
G|-12-12-10-10-10-10------------------------|
D|-12-12-10-10-10-10-10-10-10-10-10-10-10-10|
A|-10-10-8--8--8--8--10-10-10-10-10-10-10-10|
E|-------------------8--8--8--8--8--8--8--8-|

e|------------------------------------------------|
B|------------------------------------------------|
G|-10-10-10-10-12-12-12-12------------------------|
D|-10-10-10-10-12-12-12-12-10-10-10-10-10-10-10-10|
A|-8--8--8--8--10-10-10-10-10-10-10-10-10-10-10-10|
E|-------------------------8--8--8--8--8--8--8--8-|


e|-5-5------------------------------------|
B|-6-6------------------------------------|
G|-7-7-10-10-10-10------------------------|
D|-7-7-10-10-10-10-10-10-10-10-10-10-10-10|
A|-5-5--8--8--8--8-10-10-10-10-10-10-10-10|
E|------------------8--8--8--8--8--8--8--8|
   D-

e|------------------------------------------------|
B|------------------------------------------------|
G|-10-10-10-10-10-10-10-10-12-12-12-12-12-12-12-12|
D|-10-10-10-10-10-10-10-10-12-12-12-12-12-12-12-12|
A|--8--8--8--8--8--8--8--8-10-10-10-10-10-10-10-10|
E|------------------------------------------------|

Those last 4 bars are the chorus, it seems long but it's only played once for each chorus.

Solo (thick distortion)

e|--------------------------------------------------|
B|----------------------------------------13-15^-13-|
G|--------------------------------------------------| x2
D|-10~-12^-10------------------------12-------------|
A|------------12-10-12-12~-10-8-12-15--15-----------|
E|--------------------------------------------------|

Bridge

e|---------------------------------|
B|---------------------------------|
G|-5-5-5-5-----------------5-5-5-5-|
D|-5-5-5-5-7-7-7-7-3-3-3-3-5-5-5-5-| x2
A|-3-3-3-3-7-7-7-7-3-3-3-3-3-3-3-3-|
E|---------5-5-5-5-1-1-1-1---------|
  PM>>>>>>>>>>>>>>>>>>>>>>>>>>>>>>

LAYOUT:

Intro x2
Verse x2
Chrous x1
Intro x2
Verse x2
Chorus x1
Solo x2
Bridge x2
Chorus x1
Intro x4


END
Tap to rate this tab
 
# A B C D E F G H I J K L M N O P Q R S T U V W X Y Z