Song name
# A B C D E F G H I J K L M N O P Q R S T U V W X Y Z

Swingin Utters - Teenage Genocide tab

Help us improve GuitareTab! Take a short survey!
----------------------------------------------------------------------------
			     Teenage Genocide - Swingin Utters
----------------------------------------------------------------------------
Tabbed by: wenwi91

Tuning: Standard

I was not able to figure out the solo but if you mess around somewhere in the 7th and 
frets on e and B it should come pretty close

Intro
e|-----------------------------------------|
B|-----------------------------------------|
G|--4~-------6~--------2~--------4~--------|
D|--4~-------6~--------2~--------4~--------|
A|--2~-------4~--------0~--------2~--------|
E|-----------------------------------------|


Verse
e|-----------------------------------------------------------|
B|-----------------------------------------------------------|
G|--4-4-4-4-4-4--6-6-6-6-6-6--2-2-2-2-2-2--4-4-4-4-4-4-------|
D|--4-4-4-4-4-4--6-6-6-6-6-6--2-2-2-2-2-2--4-4-4-4-4-4-------|
A|--2-2-2-2-2-2--4-4-4-4-4-4--0-0-0-0-0-0--2-2-2-2-2-2-------|
E|-----------------------------------------------------------|


Chorus
e|------------------------------|
B|------------------------------|
G|--9-----------6-6-6-6---------|
D|--9--9--6--9--6-6-6-6---------|
A|--7--9--6--9--4-4-4-4---------|
E|-----7--4--7------------------|

Order:

intro x1
verse x4
chorus x4
verse x4
chorus x4
solo
verse x4
chorus x4


| ~  let ring
============================================================================
Related for Teenage Genocide tab