Swingin Utters - The Dirty Sea tab

-------------------------------------------------------------------------------
			     Dirty Sea - Swingin Utters
-------------------------------------------------------------------------------

Intro:

e|---------------------------------------------------------------------------|
B|---------------------------------------------------------------------------|
G|---------------------------------------------------------------------------|
D|--11-----------------------------------------------------------------------|
A|--11-----------------------------------------------------------------------|
E|--9-----(x8)---------------------------------------------------------------|
   (pm)

Verse 1:

e|---------------------------------------------------------------------------|
B|---------------------------------------------------------------------------|
G|---------------------------------------------------------------------------|
D|--11-------\--4--------/--6--------\--4------------------------------------|
A|--11-------\--4--------/--6--------\--4------------------------------------|
E|--9--(x8)--\--2--(x8)--/--4--(x8)--\--2--(x8)------------------------------|
   (pm)        (pm)        (pm)        (pm)

Chorus:

e|---------------------------------------------------------------------------|
B|---------------------------------------------------------------------------|
G|--11-------------11----------------------11------------11------------------|
D|--11-------------11-------------11-------11---11-------11--11--------------|
A|--9--(let ring)--9--(let ring)--11-------9----11-------9---11--------------|
E|--------------------------------9--(x5)-------9--(x5)------9--(x5)---------|
                                 (pm)          (pm)         (pm)


e|---------------------------------------------------------------------------|
B|---------------------------------------------------------------------------|
G|--11-------------11-------------13--10--10--11-----------------------------|
D|--11-------------11-------------13--10--10--11--13--13---------------------|
A|--9--(let ring)--9--(let ring)--11--8---8---9---13--13---------------------|
E|------------------------------------------------11--11---------------------|

Verse 2 & 3:

e|---------------------------------------------------------------------------|
B|---------------------------------------------------------------------------|
G|---------------------------------------------------------------------------|
D|--11-------\--4--------/--6--------\--4------------------------------------|
A|--11-------\--4--------/--6--------\--4------------------------------------|
E|--9--(x8)--\--2--(x8)--/--4--(x8)--\--2--(x8)------------------------------|


You should be able to figure out from there.  Sorry - no solo.


************************************

| /   slide up
| \   slide down
| h   hammer-on
| p   pull-off
| ~   vibrato
| +   harmonic
| x   Mute note
| b   Bend
| pb  Pre-bend
| br  Bend release
| pbr Pre-bend release
| brb Bend release bend

************************************
Tap to rate this tab
 
# A B C D E F G H I J K L M N O P Q R S T U V W X Y Z