Swingin Utters - Jackie Jab tab

-------------------------------------------------------------------------------
			     JACKIE JAB - Swingin Utters
-------------------------------------------------------------------------------

Intro:

e|---------------------------------------------------------------------------|
B|---------------------------------------------------------------------------|
G|--9--X--X--X--X--X--X--X---------------9-----------------------------------|
D|--9--X--X--X--X--X--X--X---------------9-----------------------------------|
A|--7--X--X--X--X--X--X--X--(repeat x3)--7--let ring)------------------------|
E|---------------------------------------------------------------------------|

Verse:

e|---------------------------------------------------------------------------|
B|---------------------------------------------------------------------------|
G|--9-9------------7-7---------------9---------------------------------------|
D|--9-9--9-9--7-7--7-7---------------9---------------------------------------|
A|--7-7--9-9--7-7--5-5--(repeat x8)--7--(let ring)---------------------------|
E|-------7-7--5-5------------------------------------------------------------|

Chorus:

e|---------------------------------------------------------------------------|
B|---------------------------------------------------------------------------|
G|--9---------------9---------------7---------------9------------------------|
D|--7---------------9---------------7---------------9------------------------|
A|--5--(repeat x8)--7--(repeat x8)--5--(repeat x8)--7--(let ring)------------|
E|---------------------------------------------------------------------------|
Tap to rate this tab
 
# A B C D E F G H I J K L M N O P Q R S T U V W X Y Z