Swingin Utters - Taking The Long Way tab

Intro/Verse

e----------------------------------|
b----------------------------------|
g----------------------7-7---------|
d--7-7-7-7-7-7-7-7-5-5-7-7-7-x-x-x-|
a--7-7-7-7-7-7-7-7-5-5-5-5-7-x-x-x-|
e--5-5-5-5-5-5-5-5-3-3-----5-x-x-x-|


Chorus

e------------------|                      e------------------|
b------------------|                      b------------------|
g--5-5-5-5---------|    repeat X3 then    g------------------|
d--5-5-5-5-5-5-5-5-|                      d--7-7-7-7-7-7-7-7-|
a--3-3-3-3-5-5-5-5-|                      a--7-7-7-7-7-7-7-7-|
e----------3-3-3-3-|                      e--5-5-5-5-5-5-5-5-|


Last First same as first two only a whole step higher
(start on seventh fret of E string)
Tap to rate this tab
 
# A B C D E F G H I J K L M N O P Q R S T U V W X Y Z