Song name
# A B C D E F G H I J K L M N O P Q R S T U V W X Y Z

Swingin Utters - Scary Brittle Frame tab

----------------------------------------------------------------------------
                             Scary Brittle Frame - Swingin Utters
----------------------------------------------------------------------------

Feel free to submit more $wingin Utter$ tabs.  They are so good

Capo on 3rd fret:

Intro/Outro:

e|-2---2---2-2-2-2----------------------------------------------------|
B|-3---3---2-2-2-2----------------------------------------------------|
G|-2---2---2-2-2-2----------------------------------------------------|
D|-0---0---4-4-4-4----------------------------------------------------|
A|---------4-4-4-4----------------------------------------------------|
E|---------2-2-2-2----------------------------------------------------|

Verse:

e|-2---2---2-2-2-2-2---2---2-2-2-2-0---0-0-0-0-0-0-0---0-0-0-0-0-0----|
B|-3---3---2-2-2-2-3---3---2-2-2-2-0---0-0-0-0-0-0-2---2-2-2-2-2-2----|
G|-2---2---2-2-2-2-2---2---2-2-2-2-1---1-1-1-1-1-1-2---2-2-2-2-2-2----|
D|-0---0---4-4-4-4-0---0---4-4-4-4-2---2-2-2-2-2-2-2---2-2-2-2-2-2----|
A|---------4-4-4-4---------4-4-4-4-2---2-2-2-2-2-2-0---0-0-0-0-0-0----|
E|---------2-2-2-2---------2-2-2-2-0---0-0-0-0-0-0--------------------|

Chorus:

e|-2---2-2-2-2-2-2-0---0-0-0-0-0-0-3---3-3-3-3-3-3-2---2-2-2-2-2-2----|
B|-2---2-2-2-2-2-2-0---0-0-0-0-0-0-0---0-0-0-0-0-0-3---3-3-3-3-3-3----|
G|-2---2-2-2-2-2-2-1---1-1-1-1-1-1-0---0-0-0-0-0-0-2---2-2-2-2-2-2----|
D|-4---4-4-4-4-4-4-2---2-2-2-2-2-2-0---0-0-0-0-0-0-0---0-0-0-0-0-0----|
A|-4---4-4-4-4-4-4-2---2-2-2-2-2-2-2---2-2-2-2-2-2--------------------|
E|-2---2-2-2-2-2-2-0---0-0-0-0-0-0-3---3-3-3-3-3-3--------------------|

e|-2---2-2-2-2-2-2-0---0-0-0-0-0-0-3---3-3-3-3-3-3-3---3-3-3-3-3-3----|
B|-2---2-2-2-2-2-2-0---0-0-0-0-0-0-0---0-0-0-0-0-0-0---0-0-0-0-0-0----|
G|-2---2-2-2-2-2-2-1---1-1-1-1-1-1-0---0-0-0-0-0-0-0---0-0-0-0-0-0----|
D|-4---4-4-4-4-4-4-2---2-2-2-2-2-2-0---0-0-0-0-0-0-0---0-0-0-0-0-0----|
A|-4---4-4-4-4-4-4-2---2-2-2-2-2-2-2---2-2-2-2-2-2-2---2-2-2-2-2-2----|
E|-2---2-2-2-2-2-2-0---0-0-0-0-0-0-3---3-3-3-3-3-3-3---3-3-3-3-3-3----|


************************************

| /   slide up
| \   slide down
| h   hammer-on
| p   pull-off
| ~   vibrato
| +   harmonic
| x   Mute note
| b   Bend
| pb  Pre-bend
| br  Bend release
| pbr Pre-bend release
| brb Bend release bend

************************************
Tap to rate this tab
# A B C D E F G H I J K L M N O P Q R S T U V W X Y Z