Song name
# A B C D E F G H I J K L M N O P Q R S T U V W X Y Z

Swingin Utters - Strongman tab

----------------------------------------------------------------------
Swingin' Utters-Strongman
----------------------------------------------------------------------

Tabbed by:Drappetite
E-mail:drappetite@aim.com

Tuning:Standard

This song could really be played with one guitar but two sounds a little janglier and
besides the Utters use two most of the time anyways.  If you are only one just play the
full bar chords.  If I totally botched it let me know in a vicious email attacking me 
and I'll get a good chuckle and probably look and see if it needs to be changed.

Intro:
Guitar 1
e|----------------|----------------|---------------|
B|----------------|----------------|---------------|
G|----------------|----------------|---------------|
D|----------------|----------------|---------------|
A|-----3-3-2-0----|----------------|-----3-3-2-0---|
E|----------------|----------------|---------------|

Guitar 2
e|----------------|----------------|---------------|
B|----------------|----------------|---------------|
G|----------------|----------------|---------------|
D|----------------|----------------|---------------|
A|----------------|----------------|---------------|
E|----------------|-----8-8-7-5----|---------------|

Interlude:
Both 1 & 2 Strum it out
e|------3--------3--------3--------3---------------|
B|------3--------3--------3--------3---------------|
G|------4--------4--------4--------4---------------|
D|------5--------5--------5--------5---------------|
A|------5--------5--------5--------5---------------|
E|------3--------3--------3--------3---------------|

Verse:  You feel stupid tired of losing each game…
Guitar 1:
Strum it out
e|-----------------------------------------------------------------------|
B|-----------------------------------------------------------------------|
G|-------------5---------------5---------------5-------7-----------------|
D|-----5-------5-------5-------5-------5-------5-------7-----------------|
A|-----5-------3-------5-------3-------5-------3-------5-----------------|
E|-----3---------------3---------------3---------------------------------|

Guitar 2:
 Strum it out
e|-----3-------8-------3-------8-------3-------8-------10-------------------|
B|-----3-------8-------3-------8-------3-------8-------10-------------------|
G|-----4-------9-------4-------9-------4-------9-------11-------------------|
D|-----5-------10------5-------10------5-------10------12-------------------|
A|--------------------------------------------------------------------------|
E|--------------------------------------------------------------------------|

Chorus: So cut all the little people off
Guitar 1:keep strumming...
e|----------------------------------------------------------------------|
B|----------------------------------------------------------------------|
G|-----5-------7---------------5-------5-------7------------------------| X2
D|-----5-------7-------5-------5-------5-------7-------5-------5--------|
A|-----3-------5-------5-------3-------3-------5-------5-------5--------|
E|---------------------3-------------------------------3-------3--------|



Guitar 2:
Strum away....
e|-----8-------10-------3-------8-------8-------10-------3-------3------|
B|-----8-------10-------3-------8-------8-------10-------3-------3------|
G|-----9-------11-------4-------9-------9-------11-------4-------4------| X2
D|-----10------12-------5-------10------10------12-------5-------5------|
A|----------------------------------------------------------------------|
E|----------------------------------------------------------------------|

Interlude:
Both 1 & 2
e|------3~-------3~-------3~-------3~--------------|
B|------3~-------3~-------3~-------3~--------------|
G|------4~-------4~-------4~-------4~--------------|
D|------5~-------5~-------5~-------5~--------------|
A|------5~-------5~-------5~-------5~--------------|
E|------3~-------3~-------3~-------3~--------------|

Verse 2:  You’ve the strength of 20 men
Guitar 1:
Strum it out
e|-----------------------------------------------------------------------|
B|-----------------------------------------------------------------------|
G|-------------5---------------5---------------5-------7-----------------|
D|-----5-------5-------5-------5-------5-------5-------7-----------------|
A|-----5-------3-------5-------3-------5-------3-------5-----------------|
E|-----3---------------3---------------3---------------------------------|

Guitar 2:
Strum it out
e|-----3-------8-------3-------8-------3-------8-------10-------------------|
B|-----3-------8-------3-------8-------3-------8-------10-------------------|
G|-----4-------9-------4-------9-------4-------9-------11-------------------|
D|-----5-------10------5-------10------5-------10------12-------------------|
A|--------------------------------------------------------------------------|
E|--------------------------------------------------------------------------|

Chorus: So cut all the little people off
Guitar 1:keep on strumming
e|----------------------------------------------------------------------|
B|----------------------------------------------------------------------|
G|-----5-------7---------------5-------5-------7------------------------| X2
D|-----5-------7-------5-------5-------5-------7-------5----------------|
A|-----3-------5-------5-------3-------3-------5-------5----------------|
E|---------------------3-------------------------------3----------------|


Guitar 2:Strum strum strum
e|-----8-------10-------3-------8-------8-------10-------3--------------|
B|-----8-------10-------3-------8-------8-------10-------3--------------|
G|-----9-------11-------4-------9-------9-------11-------4--------------| X2
D|-----10------12-------5-------10------10------12-------5--------------|
A|----------------------------------------------------------------------|
E|----------------------------------------------------------------------|


Outro:
Guitar 1:
Strum it out
e|-----------------------------------------------------------------------|
B|-----------------------------------------------------------------------|
G|-------------5---------------5---------------5-------7-----------------|X3
D|-----5-------5-------5-------5-------5-------5-------7-----------------|
A|-----5-------3-------5-------3-------5-------3-------5-----------------|
E|-----3---------------3---------------3---------------------------------|

Guitar 2:
e|--7-7-7-8--5--4-4~-7-7-7-8--5--4-4~-7-7-7-8--5--4-4--10----------------|
B|--8-8-8-8--6--4-4~-8-8-8-8--6--4-4~-8-8-8-8--6--4-4--10----------------|
G|--7-7-7-7--5--5-5~-7-7-7-7--5--5-5~-7-7-7-7--5--5-5--11----------------|X2
D|-----------------------------------------------------------------------|
A|-----------------------------------------------------------------------|
E|-----------------------------------------------------------------------|

Guitar 2: (Sort of it, check the timing.)
e|-----3-3-3-3--8--8--8--8----|     |----10----|
B|-----3-3-3-3--8--8--8--8----|     |----10----|
G|-----4-5-4-4--9--9--10-9----|X3   |----11----|
D|-----5-5-5-5--10-10-10-10---|     |----12----|
A|----------------------------|     |----------|
E|----------------------------|     |----------|



Guitar 1&2
End
e|------3~------|
B|------3~------|
G|------4~------|
D|------5~------|
A|------5~------|
E|------3~------|

************************************

| /   slide up
| \   slide down
| h   hammer-on
| p   pull-off
| ~   vibrato
| +   harmonic
| x   Mute note
| b   Bend
| pb  Pre-bend
| br  Bend release
| pbr Pre-bend release
| brb Bend release bend

************************************
Tap to rate this tab
# A B C D E F G H I J K L M N O P Q R S T U V W X Y Z