Song name
# A B C D E F G H I J K L M N O P Q R S T U V W X Y Z

Swingin Utters - Mommy Mommy tab

                        Mommy, Mommy

                             By
                    the SWINGING UTTERS

I recently checked the archives and was shocked to find there were no songs by the Swinging Utters tabbed 
all! So yeah i took care of that.

INDEX:
LIR=Let it ring
SLIDE=Slide down neck to next note

Start by playing a G power chord...


---------------------------------------------------------|
---------------------------------------------------------|
---------------------------------------------------------|
----5----------------------------------------------------|
----5----------------------------------------------------|
----3----------------------------------------------------|

LIR, whilst turning the volume up on your guitar
then...

INTRO: DISTORTION

Listen to the song for the timing


"Mommy, Mommy can i go and play in the trees-in the park?"

"And Mommy, Mommy can i stay out with my friends-after dark?"

--------------------------------------------------------|
--------------------------------------------------------|
--------------7-7-7-7-7---9-9-9-9---5-5-5-5-5-----------|
---5-5-5-5-5--7-7-7-7-7---9-9-9-9---5-5-5-5-5-----------|
---5-5-5-5-5--5-5-5-5-5---7-7-7-7---3-3-3-3-3-----------|
---3-3-3-3-3--------------------------------------------|


"Mommy, mommy don't underestimate my friends, no..."

"Cause your sitting around with Bob, I know you're having a cow."

--------------------------------------------------------|
--------------------------------------------------------|
--------------7-7-7-7-7---9-9-9-9---5-5-5-5-5-----------|
---5-5-5-5-5--7-7-7-7-7---9-9-9-9---5-5-5-5-5-----------|
---5-5-5-5-5--5-5-5-5-5---7-7-7-7---3-3-3-3-3-----------|
---3-3-3-3-3--------------------------------------------|

"Sometimes you gotta get on your own.."
---------------------------------------------------------|
---------------------------------------------------------|
----7------------5---------------------------------------|
----7---(LIR)----5---(LIR)-------------------------------|
----5------------3---------------------------------------|
---------------------------------------------------------|

"Sometimes you gotta leave the nest...to be free"

---------------------------------------------------------|
---------------------------------------------------------|
---7-------------5----------4----------------------------|
---7--(LIR)------5--(LIR)---4--(LIR)---------------------|
---5-------------3----------2----------------------------|
---------------------------------------------------------|


SOLO: CLEAN
---------------------------------------------------------|
---------------------------------------------------------|
-0--2-(SLIDE)-4-5-4-5-4-5-4-0----------------------------|
---------------------------------------------------------|
---------------------------------------------------------|
---------------------------------------------------------|

---------------------------------------------------------|
---------------------------------------------------------|
-0--2-(SLIDE)-4-5-4-5-4-5-(SLIDE)-7-5-4-5-4-5-(SLIDE)7---|
---------------------------------------------------------|
---------------------------------------------------------|
---------------------------------------------------------|

---------------------------------------------------------|
---------------------------------------------------------|
--4-5-4-0--------7-5-4-5-4-5-(SLIDE)7--5-4-5-4-5-(SLIDE)-|
---------------------------------------------------------|
---------------------------------------------------------|
---------------------------------------------------------|

---------------------------------------------------------|
---------------------------------------------------------|
----12-(LIR)---------------------------------------------|
---------------------------------------------------------|
---------------------------------------------------------|
---------------------------------------------------------|

Then, play these notes once each


--------------------------------------------------------|
--------------------------------------------------------|
---------7------9------5--------------------------------|
--5------7------9------5--------------------------------|
--5------5------7------3--------------------------------|
--3-----------------------------------------------------|

Repeat intro and solo.

                        The End.....

By Smacky
Tap to rate this tab
 
# A B C D E F G H I J K L M N O P Q R S T U V W X Y Z