Song name
# A B C D E F G H I J K L M N O P Q R S T U V W X Y Z

Swingin Utters - Windspitting Punk tab

Help us improve GuitareTab! Take a short survey!
P=palm mute
/=slide
h=hold

Intro

Guitar 1

--5-4-0-0-2-------------------------------------|
------0-----------------------------------------|
------------------------------------------------|
------------------------------------------------|
------------------------------------------------|
------------------------------------------------|

Guitar 2

------------------------------------------------|
------------------------------------------------|
------------------------------------------------|
--4-6---9---------------------------------------|
--2-4-6-7---------------------------------------|
------4-----------------------------------------|

Verse

------------------------------------------------|
------------------------------------------------|
------------------------------------------------|
--4-6---9---------------------------------------|
--2-4-6-7---------------------------------------|
------4-----------------------------------------|
  p p p p

Chorus

------------------------------------------------|
------------------------------------------------|
------------------------------------------------|
--4-6-9-11--------------------------------------|
--2-4-7-9---------------------------------------|
------------------------------------------------|

Solo

-0~---0-2-0~---0-2-0~-0-2-0~---0-2-0~---0-2-0~---0-2-0~---0-2-0~---0-2-0~-|
--------------------------------------------------------------------------|
--------------------------------------------------------------------------|
--------------------------------------------------------------------------|
--------------------------------------------------------------------------|
--------------------------------------------------------------------------|

-0h2/4-4-4-4-4~--4/5-5-5-5-4-5-0~--|
-----------------------------------|
-----------------------------------|
-----------------------------------|
-----------------------------------|
-----------------------------------|
Related for Windspitting Punk tab